  0
SECTION
  2
HEADER
  9
$ACADVER
  1
AC1009
  9
$DWGCODEPAGE
  3
dos932
  9
$INSBASE
 10
0.0
 20
0.0
 30
0.0
  9
$EXTMIN
 10
-475.08751525330081
 20
-353.22604865509493
 30
-0.0000000000112498
  9
$EXTMAX
 10
650.31076957876758
 20
49.609371551196091
 30
0.0000000000002956
  9
$LIMMIN
 10
0.0000014455781638
 20
-0.0000031812703583
  9
$LIMMAX
 10
5940.0000014455791
 20
4199.9999968187294
  9
$ORTHOMODE
 70
     0
  9
$REGENMODE
 70
     1
  9
$FILLMODE
 70
     1
  9
$QTEXTMODE
 70
     0
  9
$MIRRTEXT
 70
     1
  9
$LTSCALE
 40
10.0
  9
$ATTMODE
 70
     1
  9
$TEXTSIZE
 40
2.5
  9
$TRACEWID
 40
1.0
  9
$TEXTSTYLE
  7
STYLE1
  9
$CLAYER
  8
SIZE
  9
$CELTYPE
  6
ByLayer
  9
$CECOLOR
 62
    30
  9
$DIMSCALE
 40
10.0
  9
$DIMASZ
 40
1.0
  9
$DIMEXO
 40
0.0
  9
$DIMDLI
 40
12.0
  9
$DIMRND
 40
0.0
  9
$DIMDLE
 40
0.0
  9
$DIMEXE
 40
2.0
  9
$DIMTP
 40
0.1
  9
$DIMTM
 40
0.1
  9
$DIMTXT
 40
4.0
  9
$DIMCEN
 40
0.0
  9
$DIMTSZ
 40
0.0
  9
$DIMTOL
 70
     0
  9
$DIMLIM
 70
     0
  9
$DIMTIH
 70
     0
  9
$DIMTOH
 70
     0
  9
$DIMSE1
 70
     0
  9
$DIMSE2
 70
     0
  9
$DIMTAD
 70
     3
  9
$DIMZIN
 70
     8
  9
$DIMBLK
  1

  9
$DIMASO
 70
     1
  9
$DIMSHO
 70
     1
  9
$DIMPOST
  1

  9
$DIMAPOST
  1
"
  9
$DIMALT
 70
     0
  9
$DIMALTD
 70
     2
  9
$DIMALTF
 40
0.0393701
  9
$DIMLFAC
 40
1.0
  9
$DIMTOFL
 70
     1
  9
$DIMTVP
 40
0.0
  9
$DIMTIX
 70
     0
  9
$DIMSOXD
 70
     0
  9
$DIMSAH
 70
     0
  9
$DIMBLK1
  1

  9
$DIMBLK2
  1

  9
$DIMSTYLE
  2
MHIJIS
  9
$DIMCLRD
 70
     3
  9
$DIMCLRE
 70
     3
  9
$DIMCLRT
 70
     3
  9
$DIMTFAC
 40
0.71
  9
$DIMGAP
 40
1.0
  9
$LUNITS
 70
     2
  9
$LUPREC
 70
     4
  9
$SKETCHINC
 40
1.0
  9
$FILLETRAD
 40
0.0
  9
$AUNITS
 70
     0
  9
$AUPREC
 70
     0
  9
$MENU
  1
.
  9
$ELEVATION
 40
0.0
  9
$PELEVATION
 40
0.0
  9
$THICKNESS
 40
0.0
  9
$LIMCHECK
 70
     0
  9
$CHAMFERA
 40
0.0
  9
$CHAMFERB
 40
0.0
  9
$SKPOLY
 70
     0
  9
$TDCREATE
 40
2454511.500316863
  9
$TDUPDATE
 40
2457701.648526829
  9
$TDINDWG
 40
0.255150625
  9
$TDUSRTIMER
 40
0.255150625
  9
$USRTIMER
 70
     1
  9
$ANGBASE
 50
0.0
  9
$ANGDIR
 70
     0
  9
$PDMODE
 70
     0
  9
$PDSIZE
 40
0.0
  9
$PLINEWID
 40
0.0
  9
$SPLFRAME
 70
     0
  9
$SPLINETYPE
 70
     6
  9
$SPLINESEGS
 70
     8
  9
$SURFTAB1
 70
     6
  9
$SURFTAB2
 70
     6
  9
$SURFTYPE
 70
     6
  9
$SURFU
 70
     6
  9
$SURFV
 70
     6
  9
$UCSNAME
  2

  9
$UCSORG
 10
0.0
 20
0.0
 30
0.0
  9
$UCSXDIR
 10
1.0
 20
0.0
 30
0.0
  9
$UCSYDIR
 10
0.0
 20
1.0
 30
0.0
  9
$PUCSNAME
  2

  9
$PUCSORG
 10
0.0
 20
0.0
 30
0.0
  9
$PUCSXDIR
 10
1.0
 20
0.0
 30
0.0
  9
$PUCSYDIR
 10
0.0
 20
1.0
 30
0.0
  9
$USERI1
 70
     0
  9
$USERI2
 70
     0
  9
$USERI3
 70
     0
  9
$USERI4
 70
     0
  9
$USERI5
 70
     0
  9
$USERR1
 40
0.0
  9
$USERR2
 40
0.0
  9
$USERR3
 40
0.0
  9
$USERR4
 40
0.0
  9
$USERR5
 40
0.0
  9
$WORLDVIEW
 70
     1
  9
$SHADEDGE
 70
     3
  9
$SHADEDIF
 70
    70
  9
$TILEMODE
 70
     1
  9
$MAXACTVP
 70
    64
  9
$PINSBASE
 10
0.0
 20
0.0
 30
0.0
  9
$PLIMCHECK
 70
     0
  9
$PEXTMIN
 10
0.0
 20
0.0
 30
0.0
  9
$PEXTMAX
 10
0.0
 20
0.0
 30
0.0
  9
$PLIMMIN
 10
0.0
 20
0.0
  9
$PLIMMAX
 10
12.0
 20
9.0
  9
$UNITMODE
 70
     0
  9
$VISRETAIN
 70
     1
  9
$PLINEGEN
 70
     0
  9
$PSLTSCALE
 70
     1
  9
$TREEDEPTH
 70
  3020
  9
$ATTDIA
 70
     0
  9
$ATTREQ
 70
     1
  9
$BLIPMODE
 70
     1
  9
$COORDS
 70
     1
  9
$DRAGMODE
 70
     2
  9
$OSMODE
 70
     0
  9
$HANDLING
 70
     0
  9
$HANDSEED
  5
2C47
  0
ENDSEC
  0
SECTION
  2
TABLES
  0
TABLE
  2
LTYPE
 70
     4
  0
LTYPE
  2
CONTINUOUS
 70
     0
  3
Solid line
 72
    65
 73
     0
 40
0.0
  0
LTYPE
  2
AM_ISO02W050
 70
     0
  3
__ __ __ __ __ __ __ __ __ __ __ __ __ __ __
 72
    65
 73
     2
 40
7.5
 49
6.0
 49
-1.5
  0
LTYPE
  2
AM_ISO08W050
 70
     0
  3
____ . ____ . ____ . ____ . ____ . ____ . ____
 72
    65
 73
     4
 40
18.0
 49
12.0
 49
-1.5
 49
3.0
 49
-1.5
  0
LTYPE
  2
CENTER
 70
     0
  3
__ . __
 72
    65
 73
     4
 40
7.0
 49
4.0
 49
-1.0
 49
1.0
 49
-1.0
  0
ENDTAB
  0
TABLE
  2
LAYER
 70
     7
  0
LAYER
  2
OUTLINE
 70
     0
 62
     3
  6
CONTINUOUS
  0
LAYER
  2
SERVICESPACE
 70
     0
 62
     2
  6
AM_ISO02W050
  0
LAYER
  2
DETAIL
 70
     0
 62
     5
  6
CONTINUOUS
  0
LAYER
  2
BASIS
 70
     0
 62
     6
  6
AM_ISO08W050
  0
LAYER
  2
FIX
 70
     0
 62
    11
  6
CONTINUOUS
  0
LAYER
  2
ARRANGE
 70
     0
 62
     1
  6
CONTINUOUS
  0
LAYER
  2
SIZE
 70
    64
 62
    30
  6
CONTINUOUS
  0
ENDTAB
  0
TABLE
  2
STYLE
 70
     2
  0
STYLE
  2
STANDARD
 70
     0
 40
0.0
 41
0.7
 50
0.0
 71
     0
 42
2.5
  3
simplex.shx
  4
bigfont.shx
  0
STYLE
  2
STYLE1
 70
     0
 40
0.0
 41
1.0
 50
0.0
 71
     0
 42
2.5
  3
monotxt.shx
  4
bigfont.shx
  0
ENDTAB
  0
TABLE
  2
APPID
 70
    50
  0
APPID
  2
ACAD
 70
     0
  0
APPID
  2
MCAD_NO_VIS
 70
     0
  0
APPID
  2
ACAD_TEMP_GRAPHIC
 70
     0
  0
APPID
  2
ACATTRIBSERVICES
 70
     0
  0
APPID
  2
AD_DRAW
 70
     0
  0
APPID
  2
DESIGNERASSEMBLIES
 70
     0
  0
APPID
  2
ACADM_DIM_EDIT
 70
     0
  0
APPID
  2
AMDT_DM_ADJ
 70
     0
  0
APPID
  2
RAK
 70
     0
  0
APPID
  2
ACAD_DSTYLE_DIMARC_LENGTH_SYMBO
 70
     0
  0
APPID
  2
ACAD_DSTYLE_DIMJOGGED_JOGANGLE_
 70
     0
  0
APPID
  2
GENIUS_GENTRA_14
 70
     0
  0
APPID
  2
GENIUS_GENOENT_13
 70
     0
  0
APPID
  2
GENIUS_GENOLIS_13
 70
     0
  0
APPID
  2
GENIUS_GENOBJ-N-TIT_13
 70
     0
  0
APPID
  2
GENIUS_GENODEF_13
 70
     0
  0
APPID
  2
GENIUS_GENTITLE_13
 70
     0
  0
APPID
  2
GENIUS_GENOREF_13
 70
     0
  0
APPID
  2
GENIUS_GENSCREG_15
 70
     0
  0
APPID
  2
GENIUS_GENOBJ-N-SDF_13
 70
     0
  0
APPID
  2
ACAECLAYERSTANDARD
 70
     0
  0
APPID
  2
ACAD_DSTYLE_DIMEXT_LENGTH
 70
     0
  0
APPID
  2
ACAD_DSTYLE_DIMEXT_ENABLED
 70
     0
  0
APPID
  2
ACAD_PSEXT
 70
     0
  0
APPID
  2
GENIUS_GENOBJ-N-CEN_13
 70
     0
  0
APPID
  2
DCO15
 70
     0
  0
APPID
  2
ACAD_NAV_VCDISPLAY
 70
     0
  0
APPID
  2
ACADANNOPO
 70
     0
  0
APPID
  2
ACADANNOTATIVE
 70
     0
  0
APPID
  2
ACAD_DSTYLE_DIMJAG
 70
     0
  0
APPID
  2
ACAD_DSTYLE_DIMTALN
 70
     0
  0
APPID
  2
ACAD_MLEADERVER
 70
     0
  0
APPID
  2
ACAD_DSTYLE_DIMBREAK
 70
     0
  0
APPID
  2
ACAD_EXEMPT_FROM_CAD_STANDARDS
 70
     0
  0
APPID
  2
GENIUS_GENREC_14
 70
     0
  0
APPID
  2
GENIUS_GENOBJ-N-REC_13
 70
     0
  0
APPID
  2
GENIUS_GENDIM_13
 70
     0
  0
APPID
  2
GENIUS_GENDTOL_13
 70
     0
  0
APPID
  2
GENIUS_GE3DTOL_13
 70
     0
  0
APPID
  2
ASURF_PCURVE_APPNAME
 70
     0
  0
APPID
  2
AMG_3D2D_5_0
 70
     0
  0
APPID
  2
GENIUS_GENOBJ-N-HTC_13
 70
     0
  0
APPID
  2
GENIUS_GENHATCH_13
 70
     0
  0
APPID
  2
GRADIENTCOLOR1ACI
 70
     0
  0
APPID
  2
GRADIENTCOLOR2ACI
 70
     0
  0
APPID
  2
ACADSTRINGINFO
 70
     0
  0
APPID
  2
ACCMTRANSPARENCY
 70
     0
  0
APPID
  2
ACAD_DSTYLE_DIM_LINETYPE
 70
     0
  0
APPID
  2
ACAD_DSTYLE_DIM_EXT1_LINETYPE
 70
     0
  0
APPID
  2
ACAD_DSTYLE_DIM_EXT2_LINETYPE
 70
     0
  0
ENDTAB
  0
TABLE
  2
DIMSTYLE
 70
     1
  0
DIMSTYLE
  2
MHIJIS
 70
     0
  3

  4
"
  5
_OPEN30
  6

  7

 40
1.0
 41
3.149999999999999
 42
0.0
 43
12.0
 44
2.0
 45
0.0
 46
0.0
 47
0.1
 48
0.1
140
4.0
141
0.0
142
0.0
143
0.0393701
144
1.0
145
0.0
146
0.71
147
1.0
 71
     0
 72
     0
 73
     0
 74
     0
 75
     0
 76
     0
 77
     3
 78
     8
170
     0
171
     2
172
     1
173
     0
174
     0
175
     0
176
     3
177
     3
178
     3
  0
ENDTAB
  0
TABLE
  2
VIEW
 70
     6
  0
VIEW
  2
AM_VIEW1
 70
     0
 40
2100.0
 10
1795.317920520723
 20
3149.9999968187299
 41
3590.6358381502891
 11
0.0
 21
0.0
 31
1.0
 12
0.0
 22
0.0
 32
0.0
 42
50.0
 43
0.0
 44
0.0
 50
0.0
 71
     0
  0
VIEW
  2
AM_VIEW2
 70
     0
 40
2100.0
 10
4144.6820823704329
 20
3149.9999968187299
 41
3590.6358381502891
 11
0.0
 21
0.0
 31
1.0
 12
0.0
 22
0.0
 32
0.0
 42
50.0
 43
0.0
 44
0.0
 50
0.0
 71
     0
  0
VIEW
  2
AM_VIEW3
 70
     0
 40
2100.0
 10
1795.317920520723
 20
1049.999996818729
 41
3590.6358381502891
 11
0.0
 21
0.0
 31
1.0
 12
0.0
 22
0.0
 32
0.0
 42
50.0
 43
0.0
 44
0.0
 50
0.0
 71
     0
  0
VIEW
  2
AM_VIEW4
 70
     0
 40
2100.0
 10
4144.6820823704329
 20
1049.999996818729
 41
3590.6358381502891
 11
0.0
 21
0.0
 31
1.0
 12
0.0
 22
0.0
 32
0.0
 42
50.0
 43
0.0
 44
0.0
 50
0.0
 71
     0
  0
VIEW
  2
AM_VIEW5
 70
     0
 40
2100.0
 10
2970.0000014455782
 20
2099.999996818729
 41
3590.6358381502891
 11
0.0
 21
0.0
 31
1.0
 12
0.0
 22
0.0
 32
0.0
 42
50.0
 43
0.0
 44
0.0
 50
0.0
 71
     0
  0
VIEW
  2
AM_VIEW6
 70
     0
 40
4199.9580000000014
 10
2970.0000014455782
 20
2099.999996818729
 41
7181.1998635838154
 11
0.0
 21
0.0
 31
1.0
 12
0.0
 22
0.0
 32
0.0
 42
50.0
 43
0.0
 44
0.0
 50
0.0
 71
     0
  0
ENDTAB
  0
TABLE
  2
UCS
 70
     0
  0
ENDTAB
  0
TABLE
  2
VPORT
 70
     1
  0
VPORT
  2
*ACTIVE
 70
     0
 10
0.0
 20
0.0
 11
1.0
 21
1.0
 12
87.611627162733313
 22
-151.80833855194939
 13
0.0
 23
0.0
 14
25.0
 24
25.0
 15
100.0
 25
100.0
 16
0.0
 26
0.0
 36
1.0
 17
0.0
 27
0.0
 37
0.0
 40
604.78144296680921
 41
1.869760479041916
 42
50.0
 43
0.0
 44
0.0
 50
0.0
 51
0.0
 71
     0
 72
   100
 73
     1
 74
     3
 75
     0
 76
     0
 77
     0
 78
     0
  0
ENDTAB
  0
ENDSEC
  0
SECTION
  2
BLOCKS
  0
BLOCK
  8
SIZE
  2
_OPEN30
 70
     0
 10
0.0
 20
0.0
 30
0.0
  3
_OPEN30
  1
_Open30
  0
LINE
  8
SIZE
  6
ByBlock
 62
    30
 10
-1.0
 20
0.26794919
 30
0.0
 11
0.0
 21
0.0
 31
0.0
  0
LINE
  8
SIZE
  6
ByBlock
 62
    30
 10
0.0
 20
0.0
 30
0.0
 11
-1.0
 21
-0.26794919
 31
0.0
  0
LINE
  8
SIZE
  6
ByBlock
 62
    30
 10
0.0
 20
0.0
 30
0.0
 11
-1.0
 21
0.0
 31
0.0
  0
ENDBLK
  8
SIZE
  0
ENDSEC
  0
SECTION
  2
ENTITIES
  0
LINE
  8
SERVICESPACE
  6
AM_ISO02W050
 62
     2
 10
-474.9749999999994
 20
-351.60000000000042
 30
0.0
 11
-474.97499999999968
 21
49.5
 31
0.0
  0
LINE
  8
SERVICESPACE
  6
AM_ISO02W050
 62
     2
 10
650.025000000001
 20
-351.60000000000042
 30
0.0
 11
650.02500000000055
 21
49.499999999999091
 31
0.0
  0
LINE
  8
DETAIL
  6
CONTINUOUS
 62
     5
 10
-411.57300571840091
 20
-137.11571885779989
 30
0.0
 11
-411.57300571840091
 21
-56.784281106600247
 31
0.0
  0
LINE
  8
DETAIL
  6
CONTINUOUS
 62
     5
 10
-411.57300256380029
 20
-56.780979359701632
 30
0.0
 11
-411.56674113939971
 21
-56.723194224999141
 31
0.0
  0
LINE
  8
DETAIL
  6
CONTINUOUS
 62
     5
 10
-411.56674100810039
 20
-137.17680629850111
 30
0.0
 11
-411.57300256380029
 21
-137.1190206296005
 31
0.0
  0
LINE
  8
DETAIL
  6
CONTINUOUS
 62
     5
 10
-401.97499999999991
 20
-49.476528713999869
 30
0.0
 11
-401.97499999999991
 21
-78.550000000001091
 31
0.0
  0
LINE
  8
DETAIL
  6
CONTINUOUS
 62
     5
 10
-401.97499999999991
 20
-80.450000000001637
 30
0.0
 11
-401.97499999999991
 21
-80.950000000000728
 31
0.0
  0
LINE
  8
DETAIL
  6
CONTINUOUS
 62
     5
 10
-401.97499999999991
 20
-82.849999999999454
 30
0.0
 11
-401.97499999999991
 21
-144.4234712859006
 31
0.0
  0
LINE
  8
DETAIL
  6
CONTINUOUS
 62
     5
 10
-401.34150122670002
 20
-80.450000000001637
 30
0.0
 11
-401.34150122670002
 21
-80.950000000000728
 31
0.0
  0
LINE
  8
DETAIL
  6
CONTINUOUS
 62
     5
 10
-400.47499999999889
 20
-80.450000000001637
 30
0.0
 11
-400.47499999999889
 21
-80.950000000000728
 31
0.0
  0
LINE
  8
DETAIL
  6
CONTINUOUS
 62
     5
 10
-399.97499999999951
 20
-45.499999999999993
 30
0.0
 11
-399.97499999999951
 21
-76.0
 31
0.0
  0
LINE
  8
DETAIL
  6
CONTINUOUS
 62
     5
 10
-399.97499999999951
 20
-298.15683218380042
 30
0.0
 11
-399.97499999999951
 21
-300.40000000000049
 31
0.0
  0
LINE
  8
DETAIL
  6
CONTINUOUS
 62
     5
 10
-399.97499999999951
 20
-229.82264973080049
 30
0.0
 11
-399.97499999999951
 21
-100.9773502691005
 31
0.0
  0
LINE
  8
DETAIL
  6
CONTINUOUS
 62
     5
 10
-399.97499999999951
 20
-99.822649730800563
 30
0.0
 11
-399.97499999999951
 21
-85.400000000000546
 31
0.0
  0
LINE
  8
DETAIL
  6
CONTINUOUS
 62
     5
 10
-399.97499999999951
 20
-85.400000000000546
 30
0.0
 11
-399.97499999999951
 21
-76.0
 31
0.0
  0
LINE
  8
DETAIL
  6
CONTINUOUS
 62
     5
 10
-399.97499999999951
 20
-300.39991866560098
 30
0.0
 11
-399.97499999999951
 21
-45.50008028999946
 31
0.0
  0
LINE
  8
DETAIL
  6
CONTINUOUS
 62
     5
 10
-371.46139840810059
 20
-330.41745307100058
 30
0.0
 11
-371.54881939660072
 21
-320.40000000000049
 31
0.0
  0
LINE
  8
DETAIL
  6
CONTINUOUS
 62
     5
 10
-336.27500000000049
 20
-10.000000000000909
 30
0.0
 11
-336.27500000000049
 21
-30.5
 31
0.0
  0
LINE
  8
DETAIL
  6
CONTINUOUS
 62
     5
 10
-336.27500000000049
 20
-332.39999999999958
 30
0.0
 11
-336.27500000000049
 21
-341.60000000000042
 31
0.0
  0
LINE
  8
DETAIL
  6
CONTINUOUS
 62
     5
 10
-326.27500000000049
 20
-349.79999999999973
 30
0.0
 11
-326.27500000000049
 21
-351.5997481355007
 31
0.0
  0
LINE
  8
DETAIL
  6
CONTINUOUS
 62
     5
 10
-326.27500000000049
 20
-1.8000000000010909
 30
0.0
 11
-326.27500000000049
 21
-0.0002518643996154
 31
0.0
  0
LINE
  8
DETAIL
  6
CONTINUOUS
 62
     5
 10
-316.97499999999991
 20
-4.8000000000010914
 30
0.0
 11
-316.97499999999991
 21
-24.300000000001091
 31
0.0
  0
LINE
  8
DETAIL
  6
CONTINUOUS
 62
     5
 10
-316.97499999999991
 20
-334.79999999999973
 30
0.0
 11
-316.97499999999991
 21
-338.80000000000069
 31
0.0
  0
LINE
  8
DETAIL
  6
CONTINUOUS
 62
     5
 10
-304.97499999999951
 20
-338.80000000000069
 30
0.0
 11
-304.97499999999951
 21
-334.79999999999973
 31
0.0
  0
LINE
  8
DETAIL
  6
CONTINUOUS
 62
     5
 10
-304.97499999999951
 20
-24.300000000001091
 30
0.0
 11
-304.97499999999951
 21
-4.8000000000010914
 31
0.0
  0
LINE
  8
DETAIL
  6
CONTINUOUS
 62
     5
 10
-295.67499999999882
 20
-349.79999999999973
 30
0.0
 11
-295.67499999999882
 21
-351.5997481355007
 31
0.0
  0
LINE
  8
DETAIL
  6
CONTINUOUS
 62
     5
 10
-295.67499999999882
 20
-1.8000000000010909
 30
0.0
 11
-295.67499999999882
 21
-0.0002518643996154
 31
0.0
  0
LINE
  8
DETAIL
  6
CONTINUOUS
 62
     5
 10
-285.67499999999882
 20
-341.60000000000042
 30
0.0
 11
-285.67499999999882
 21
-332.39999999999958
 31
0.0
  0
LINE
  8
DETAIL
  6
CONTINUOUS
 62
     5
 10
-285.67499999999882
 20
-30.5
 30
0.0
 11
-285.67499999999882
 21
-10.000000000000909
 31
0.0
  0
LINE
  8
DETAIL
  6
CONTINUOUS
 62
     5
 10
400.02500000000049
 20
-242.6999999999789
 30
0.0
 11
459.50160682430118
 21
-226.76329123280169
 31
0.0
  0
LINE
  8
DETAIL
  6
CONTINUOUS
 62
     5
 10
-326.27500000000049
 20
-349.79999999999973
 30
0.0
 11
-295.67499999999882
 21
-349.79999999999973
 31
0.0
  0
LINE
  8
DETAIL
  6
CONTINUOUS
 62
     5
 10
183.7249999999994
 20
-349.79999999999973
 30
0.0
 11
214.32500000000121
 21
-349.79999999999973
 31
0.0
  0
LINE
  8
DETAIL
  6
CONTINUOUS
 62
     5
 10
142.31147456190001
 20
-332.39999999999958
 30
0.0
 11
-369.46147456199918
 21
-332.39999999999958
 31
0.0
  0
LINE
  8
DETAIL
  6
CONTINUOUS
 62
     5
 10
380.02491866559922
 20
-320.40000000000049
 30
0.0
 11
-379.97491561570092
 21
-320.40000000000049
 31
0.0
  0
LINE
  8
DETAIL
  6
CONTINUOUS
 62
     5
 10
-379.97499999999951
 20
-320.40000000000049
 30
0.0
 11
106.7250382844008
 21
-320.40000000000049
 31
0.0
  0
LINE
  8
DETAIL
  6
CONTINUOUS
 62
     5
 10
116.12496171559989
 20
-320.40000000000049
 30
0.0
 11
150.625
 21
-320.40000000000049
 31
0.0
  0
LINE
  8
DETAIL
  6
CONTINUOUS
 62
     5
 10
151.12499999999949
 20
-320.40000000000049
 30
0.0
 11
185.3250382843998
 21
-320.40000000000049
 31
0.0
  0
LINE
  8
DETAIL
  6
CONTINUOUS
 62
     5
 10
194.72496171560121
 20
-320.40000000000049
 30
0.0
 11
380.02500000000049
 21
-320.40000000000049
 31
0.0
  0
LINE
  8
DETAIL
  6
CONTINUOUS
 62
     5
 10
-406.54182432849888
 20
-141.82304620919959
 30
0.0
 11
-406.50215586500047
 21
-141.82608984230041
 31
0.0
  0
LINE
  8
DETAIL
  6
CONTINUOUS
 62
     5
 10
-399.97499999999951
 20
-145.45000000000161
 30
0.0
 11
-401.00117694830033
 21
-145.42312861090161
 31
0.0
  0
LINE
  8
DETAIL
  6
CONTINUOUS
 62
     5
 10
-401.97499999999991
 20
-141.94999999999979
 30
0.0
 11
-406.27142080009878
 21
-141.83749426190019
 31
0.0
  0
LINE
  8
DETAIL
  6
CONTINUOUS
 62
     5
 10
-406.32186904269918
 20
-141.83591717959911
 30
0.0
 11
-406.27141644979918
 21
-141.83749437570069
 31
0.0
  0
LINE
  8
DETAIL
  6
CONTINUOUS
 62
     5
 10
-406.50215586500047
 20
-141.82608984230041
 30
0.0
 11
-406.32186904269918
 21
-141.83591717959911
 31
0.0
  0
LINE
  8
DETAIL
  6
CONTINUOUS
 62
     5
 10
-400.22500000000031
 20
-85.400000000000546
 30
0.0
 11
-399.97499999999951
 21
-85.400000000000546
 31
0.0
  0
LINE
  8
DETAIL
  6
CONTINUOUS
 62
     5
 10
-401.97298927949981
 20
-82.849999999999454
 30
0.0
 11
-401.97832637870067
 21
-82.849999999999454
 31
0.0
  0
LINE
  8
DETAIL
  6
CONTINUOUS
 62
     5
 10
-400.47499999999889
 20
-80.950000000000728
 30
0.0
 11
-402.35039311829951
 21
-80.950000000000728
 31
0.0
  0
LINE
  8
DETAIL
  6
CONTINUOUS
 62
     5
 10
-402.35039311829951
 20
-80.450000000001637
 30
0.0
 11
-400.47499999999889
 21
-80.450000000001637
 31
0.0
  0
LINE
  8
DETAIL
  6
CONTINUOUS
 62
     5
 10
-401.97832637870067
 20
-78.550000000001091
 30
0.0
 11
-401.97298927949981
 21
-78.550000000001091
 31
0.0
  0
LINE
  8
DETAIL
  6
CONTINUOUS
 62
     5
 10
144.31139840809919
 20
-330.41745307100058
 30
0.0
 11
144.39881939659921
 21
-320.40000000000049
 31
0.0
  0
LINE
  8
DETAIL
  6
CONTINUOUS
 62
     5
 10
-400.22500000000031
 20
-76.0
 30
0.0
 11
-399.97499999999951
 21
-76.0
 31
0.0
  0
LINE
  8
DETAIL
  6
CONTINUOUS
 62
     5
 10
400.02500000000049
 20
-51.700000000001637
 30
0.0
 11
400.1250000000004
 21
-51.700000000001637
 31
0.0
  0
LINE
  8
DETAIL
  6
CONTINUOUS
 62
     5
 10
173.7249999999994
 20
-10.000000000000909
 30
0.0
 11
173.7249999999994
 21
-30.5
 31
0.0
  0
LINE
  8
DETAIL
  6
CONTINUOUS
 62
     5
 10
173.724999999999
 20
-320.40000000000049
 30
0.0
 11
173.7249999999994
 21
-341.60000000000042
 31
0.0
  0
LINE
  8
DETAIL
  6
CONTINUOUS
 62
     5
 10
183.7249999999994
 20
-349.79999999999973
 30
0.0
 11
183.7249999999994
 21
-351.5997481355007
 31
0.0
  0
LINE
  8
DETAIL
  6
CONTINUOUS
 62
     5
 10
183.7249999999994
 20
-1.8000000000010909
 30
0.0
 11
183.7249999999994
 21
-0.0002518643996154
 31
0.0
  0
LINE
  8
DETAIL
  6
CONTINUOUS
 62
     5
 10
-406.50215586500047
 20
-52.07391015759913
 30
0.0
 11
-406.54182432849888
 21
-52.076953790699918
 31
0.0
  0
LINE
  8
DETAIL
  6
CONTINUOUS
 62
     5
 10
-406.27142080009878
 20
-52.062505738100299
 30
0.0
 11
-401.97499999999991
 21
-51.949999999999818
 31
0.0
  0
LINE
  8
DETAIL
  6
CONTINUOUS
 62
     5
 10
-401.00117694830033
 20
-48.476871389000742
 30
0.0
 11
-399.97499999999951
 21
-48.450000000000728
 31
0.0
  0
LINE
  8
DETAIL
  6
CONTINUOUS
 62
     5
 10
-382.49587455329902
 20
-30.5
 30
0.0
 11
-384.9749999999994
 21
-30.5
 31
0.0
  0
LINE
  8
DETAIL
  6
CONTINUOUS
 62
     5
 10
-355.02500000000049
 20
-30.5
 30
0.0
 11
-350.77499999999873
 21
-30.5
 31
0.0
  0
LINE
  8
DETAIL
  6
CONTINUOUS
 62
     5
 10
249.72500000000079
 20
-30.5
 30
0.0
 11
340.2344873724997
 21
-30.5
 31
0.0
  0
LINE
  8
DETAIL
  6
CONTINUOUS
 62
     5
 10
369.81551262739919
 20
-30.5
 30
0.0
 11
385.0250000000006
 21
-30.5
 31
0.0
  0
LINE
  8
DETAIL
  6
CONTINUOUS
 62
     5
 10
-384.97492272819949
 20
-30.5
 30
0.0
 11
385.02491970999932
 21
-30.5
 31
0.0
  0
LINE
  8
SERVICESPACE
  6
AM_ISO02W050
 62
     2
 10
-474.97499999999968
 20
49.5
 30
0.0
 11
650.02500000000055
 21
49.499999999999091
 31
0.0
  0
LINE
  8
DETAIL
  6
CONTINUOUS
 62
     5
 10
370.02500000000049
 20
-22.500000000000909
 30
0.0
 11
340.02500000000049
 21
-22.500000000000909
 31
0.0
  0
LINE
  8
DETAIL
  6
CONTINUOUS
 62
     5
 10
448.92499999999927
 20
-109.8223893566574
 30
0.0
 11
457.55452510969923
 21
-111.3440074642003
 31
0.0
  0
LINE
  8
DETAIL
  6
CONTINUOUS
 62
     5
 10
448.51182408880049
 20
-99.801907138799834
 30
0.0
 11
400.02500000000049
 21
-91.252371843100264
 31
0.0
  0
LINE
  8
DETAIL
  6
CONTINUOUS
 62
     5
 10
193.02500000000009
 20
-4.8000000000010914
 30
0.0
 11
193.02500000000009
 21
-24.300000000001091
 31
0.0
  0
LINE
  8
DETAIL
  6
CONTINUOUS
 62
     5
 10
193.02500000000009
 20
-334.79999999999973
 30
0.0
 11
193.02500000000009
 21
-338.80000000000069
 31
0.0
  0
LINE
  8
DETAIL
  6
CONTINUOUS
 62
     5
 10
205.02500000000049
 20
-338.80000000000069
 30
0.0
 11
205.02500000000049
 21
-334.79999999999973
 31
0.0
  0
LINE
  8
DETAIL
  6
CONTINUOUS
 62
     5
 10
205.02500000000049
 20
-24.300000000001091
 30
0.0
 11
205.02500000000049
 21
-4.8000000000010914
 31
0.0
  0
LINE
  8
DETAIL
  6
CONTINUOUS
 62
     5
 10
214.32500000000121
 20
-349.79999999999973
 30
0.0
 11
214.32500000000121
 21
-351.5997481355007
 31
0.0
  0
LINE
  8
DETAIL
  6
CONTINUOUS
 62
     5
 10
214.32500000000121
 20
-1.8000000000010909
 30
0.0
 11
214.32500000000121
 21
-0.0002518643996154
 31
0.0
  0
LINE
  8
DETAIL
  6
CONTINUOUS
 62
     5
 10
-326.27500000000049
 20
-1.8000000000010909
 30
0.0
 11
-319.9749999999994
 21
-1.8000000000010909
 31
0.0
  0
LINE
  8
DETAIL
  6
CONTINUOUS
 62
     5
 10
-301.97499999999991
 20
-1.8000000000010909
 30
0.0
 11
-295.67499999999882
 21
-1.8000000000010909
 31
0.0
  0
LINE
  8
DETAIL
  6
CONTINUOUS
 62
     5
 10
183.7249999999994
 20
-1.8000000000010909
 30
0.0
 11
190.02500000000049
 21
-1.8000000000010909
 31
0.0
  0
LINE
  8
DETAIL
  6
CONTINUOUS
 62
     5
 10
208.02500000000009
 20
-1.8000000000010909
 30
0.0
 11
214.32500000000121
 21
-1.8000000000010909
 31
0.0
  0
LINE
  8
DETAIL
  6
CONTINUOUS
 62
     5
 10
224.32500000000121
 20
-341.60000000000042
 30
0.0
 11
224.3250000000007
 21
-320.400000000001
 31
0.0
  0
LINE
  8
DETAIL
  6
CONTINUOUS
 62
     5
 10
224.32500000000121
 20
-30.5
 30
0.0
 11
224.32500000000121
 21
-10.000000000000909
 31
0.0
  0
LINE
  8
DETAIL
  6
CONTINUOUS
 62
     5
 10
340.02500000000049
 20
-30.5
 30
0.0
 11
340.02500000000049
 21
-22.500000000000909
 31
0.0
  0
LINE
  8
DETAIL
  6
CONTINUOUS
 62
     5
 10
370.02500000000049
 20
-30.5
 30
0.0
 11
370.02500000000049
 21
-22.500000000000909
 31
0.0
  0
LINE
  8
DETAIL
  6
CONTINUOUS
 62
     5
 10
400.02500000000049
 20
-45.499999999999993
 30
0.0
 11
400.02500000000049
 21
-47.979125446700891
 31
0.0
  0
LINE
  8
DETAIL
  6
CONTINUOUS
 62
     5
 10
400.02500000000049
 20
-85.400000000000546
 30
0.0
 11
400.02500000000049
 21
-99.822649730800563
 31
0.0
  0
LINE
  8
DETAIL
  6
CONTINUOUS
 62
     5
 10
400.02500000000049
 20
-250.40000000000049
 30
0.0
 11
400.02500000000049
 21
-267.9000000000006
 31
0.0
  0
LINE
  8
DETAIL
  6
CONTINUOUS
 62
     5
 10
400.02500000000049
 20
-268.39999999999969
 30
0.0
 11
400.02500000000049
 21
-300.40000000000049
 31
0.0
  0
LINE
  8
DETAIL
  6
CONTINUOUS
 62
     5
 10
400.02500000000049
 20
-45.500077271800357
 30
0.0
 11
400.02500000000049
 21
-300.39991561569968
 31
0.0
  0
LINE
  8
DETAIL
  6
CONTINUOUS
 62
     5
 10
400.02500000000049
 20
-241.0
 30
0.0
 11
400.02500000000049
 21
-230.9773502691005
 31
0.0
  0
LINE
  8
DETAIL
  6
CONTINUOUS
 62
     5
 10
400.02500000000049
 20
-229.82264973080049
 30
0.0
 11
400.02500000000049
 21
-100.9773502691005
 31
0.0
  0
LINE
  8
DETAIL
  6
CONTINUOUS
 62
     5
 10
400.1250000000004
 20
-51.700000000001637
 30
0.0
 11
400.1250000000004
 21
-76.0
 31
0.0
  0
LINE
  8
DETAIL
  6
CONTINUOUS
 62
     5
 10
448.92499999999927
 20
-100.29431101530101
 30
0.0
 11
448.92499999999927
 21
-109.82238935660099
 31
0.0
  0
LINE
  8
DETAIL
  6
CONTINUOUS
 62
     5
 10
471.2249999999994
 20
-159.4000000000014
 30
0.0
 11
471.2249999999994
 21
-178.39999999999961
 31
0.0
  0
ARC
  8
DETAIL
  6
CONTINUOUS
 62
     5
 10
-396.12041719540002
 20
-80.699999999999818
 30
0.0
 40
6.2349899758999996
 50
159.8286948141957
 51
177.70203547320341
  0
ARC
  8
DETAIL
  6
CONTINUOUS
 62
     5
 10
-396.12041719540002
 20
-80.699999999999818
 30
0.0
 40
6.2349899758999996
 50
182.29796452679651
 51
200.17130518580419
  0
ARC
  8
DETAIL
  6
CONTINUOUS
 62
     5
 10
-396.12041719540002
 20
-80.699999999999818
 30
0.0
 40
6.2400000000000011
 50
131.13121598178691
 51
159.84559323126319
  0
ARC
  8
DETAIL
  6
CONTINUOUS
 62
     5
 10
-396.12041719540002
 20
-80.699999999999818
 30
0.0
 40
6.2400000000000011
 50
200.15440676873681
 51
228.86878401821309
  0
ARC
  8
DETAIL
  6
CONTINUOUS
 62
     5
 10
355.02500000000049
 20
-22.500000000000909
 30
0.0
 40
15.0
 50
0.0
 51
180.0
  0
ARC
  8
DETAIL
  6
CONTINUOUS
 62
     5
 10
183.7249999999994
 20
-341.60000000000042
 30
0.0
 40
10.0
 50
180.0
 51
270.0
  0
ARC
  8
DETAIL
  6
CONTINUOUS
 62
     5
 10
214.32500000000121
 20
-341.60000000000042
 30
0.0
 40
10.0
 50
270.0
 51
0.0
  0
CIRCLE
  8
DETAIL
  6
CONTINUOUS
 62
     5
 10
216.52499999999921
 20
-339.59999999999991
 30
0.0
 40
2.0
  0
CIRCLE
  8
DETAIL
  6
CONTINUOUS
 62
     5
 10
181.5249999999991
 20
-339.59999999999991
 30
0.0
 40
2.0
  0
ARC
  8
DETAIL
  6
CONTINUOUS
 62
     5
 10
199.02499999999921
 20
-338.80000000000069
 30
0.0
 40
6.0
 50
180.0
 51
0.0
  0
ARC
  8
DETAIL
  6
CONTINUOUS
 62
     5
 10
199.02499999999921
 20
-334.79999999999973
 30
0.0
 40
6.0
 50
0.0
 51
180.0
  0
ARC
  8
DETAIL
  6
CONTINUOUS
 62
     5
 10
214.32500000000121
 20
-10.000000000000909
 30
0.0
 40
10.0
 50
0.0
 51
90.0
  0
ARC
  8
DETAIL
  6
CONTINUOUS
 62
     5
 10
183.7249999999994
 20
-10.000000000000909
 30
0.0
 40
10.0
 50
90.0
 51
180.0
  0
CIRCLE
  8
DETAIL
  6
CONTINUOUS
 62
     5
 10
181.5249999999991
 20
-12.000000000000909
 30
0.0
 40
2.0
  0
CIRCLE
  8
DETAIL
  6
CONTINUOUS
 62
     5
 10
216.52499999999921
 20
-12.000000000000909
 30
0.0
 40
2.0
  0
ARC
  8
DETAIL
  6
CONTINUOUS
 62
     5
 10
199.02499999999921
 20
-24.300000000001091
 30
0.0
 40
6.0
 50
180.0
 51
0.0
  0
ARC
  8
DETAIL
  6
CONTINUOUS
 62
     5
 10
208.02500000000009
 20
-4.8000000000010914
 30
0.0
 40
3.0
 50
90.0
 51
180.0
  0
ARC
  8
DETAIL
  6
CONTINUOUS
 62
     5
 10
190.02500000000049
 20
-4.8000000000010914
 30
0.0
 40
3.0
 50
0.0
 51
90.0
  0
ARC
  8
DETAIL
  6
CONTINUOUS
 62
     5
 10
-326.27500000000049
 20
-341.60000000000042
 30
0.0
 40
10.0
 50
180.0
 51
270.0
  0
ARC
  8
DETAIL
  6
CONTINUOUS
 62
     5
 10
-295.67499999999882
 20
-341.60000000000042
 30
0.0
 40
10.0
 50
270.0
 51
0.0
  0
CIRCLE
  8
DETAIL
  6
CONTINUOUS
 62
     5
 10
-293.47500000000082
 20
-339.59999999999991
 30
0.0
 40
2.0
  0
CIRCLE
  8
DETAIL
  6
CONTINUOUS
 62
     5
 10
-328.47500000000082
 20
-339.59999999999991
 30
0.0
 40
2.0
  0
ARC
  8
DETAIL
  6
CONTINUOUS
 62
     5
 10
-310.97500000000082
 20
-338.80000000000069
 30
0.0
 40
6.0
 50
180.0
 51
0.0
  0
ARC
  8
DETAIL
  6
CONTINUOUS
 62
     5
 10
-310.97500000000082
 20
-334.79999999999973
 30
0.0
 40
6.0
 50
0.0
 51
23.596086216205322
  0
ARC
  8
DETAIL
  6
CONTINUOUS
 62
     5
 10
-310.97500000000082
 20
-334.79999999999973
 30
0.0
 40
6.0
 50
156.40391378379471
 51
180.0
  0
ARC
  8
DETAIL
  6
CONTINUOUS
 62
     5
 10
-295.67499999999882
 20
-10.000000000000909
 30
0.0
 40
10.0
 50
0.0
 51
90.0
  0
ARC
  8
DETAIL
  6
CONTINUOUS
 62
     5
 10
-326.27500000000049
 20
-10.000000000000909
 30
0.0
 40
10.0
 50
90.0
 51
180.0
  0
CIRCLE
  8
DETAIL
  6
CONTINUOUS
 62
     5
 10
-328.47500000000082
 20
-12.000000000000909
 30
0.0
 40
2.0
  0
CIRCLE
  8
DETAIL
  6
CONTINUOUS
 62
     5
 10
-293.47500000000082
 20
-12.000000000000909
 30
0.0
 40
2.0
  0
ARC
  8
DETAIL
  6
CONTINUOUS
 62
     5
 10
-310.97500000000082
 20
-24.300000000001091
 30
0.0
 40
6.0
 50
180.0
 51
0.0
  0
ARC
  8
DETAIL
  6
CONTINUOUS
 62
     5
 10
-301.97499999999991
 20
-4.8000000000010914
 30
0.0
 40
3.0
 50
90.0
 51
180.0
  0
ARC
  8
DETAIL
  6
CONTINUOUS
 62
     5
 10
-319.9749999999994
 20
-4.8000000000010914
 30
0.0
 40
3.0
 50
0.0
 51
90.0
  0
ARC
  8
DETAIL
  6
CONTINUOUS
 62
     5
 10
-400.97500000000082
 20
-49.476528713999869
 30
0.0
 40
1.0
 50
91.500000000041908
 51
180.0
  0
ARC
  8
DETAIL
  6
CONTINUOUS
 62
     5
 10
-400.97500000000082
 20
-144.4234712859006
 30
0.0
 40
1.0
 50
180.0
 51
268.49999999995811
  0
ARC
  8
DETAIL
  6
CONTINUOUS
 62
     5
 10
-113.5750000000007
 20
1766.6200000000999
 30
0.0
 40
2100.02
 50
268.23218873615917
 51
271.76781126384083
  0
ARC
  8
DETAIL
  6
CONTINUOUS
 62
     5
 10
-369.46147456199918
 20
-330.4000000000006
 30
0.0
 40
2.0
 50
180.49999999996541
 51
270.0
  0
ARC
  8
DETAIL
  6
CONTINUOUS
 62
     5
 10
142.31147456190001
 20
-330.4000000000006
 30
0.0
 40
2.0
 50
270.0
 51
359.50000000003467
  0
ARC
  8
DETAIL
  6
CONTINUOUS
 62
     5
 10
211.02499999999961
 20
-171.94999999999979
 30
0.0
 40
260.0
 50
2.7671911676877441
 51
11.71429850880131
  0
ARC
  8
DETAIL
  6
CONTINUOUS
 62
     5
 10
211.02499999999961
 20
-171.94999999999979
 30
0.0
 40
260.0
 50
349.59435020744007
 51
358.57816441322581
  0
ARC
  8
DETAIL
  6
CONTINUOUS
 62
     5
 10
456.9134163731996
 20
-217.10403297000181
 30
0.0
 40
10.0
 50
284.99999999999437
 51
349.59435020744007
  0
ARC
  8
DETAIL
  6
CONTINUOUS
 62
     5
 10
455.81804333309952
 20
-121.1920849943008
 30
0.0
 40
10.0
 50
11.71429850880131
 51
79.999999999970456
  0
ARC
  8
DETAIL
  6
CONTINUOUS
 62
     5
 10
448.42499660410112
 20
-100.29431041650059
 30
0.0
 40
0.5
 50
359.99993138406609
 51
79.999604854224884
  0
ARC
  8
DETAIL
  6
CONTINUOUS
 62
     5
 10
380.02500000000049
 20
-300.40000000000049
 30
0.0
 40
20.0
 50
270.0
 51
0.0
  0
ARC
  8
DETAIL
  6
CONTINUOUS
 62
     5
 10
385.0250000000006
 20
-45.499999999999993
 30
0.0
 40
15.0
 50
0.0
 51
90.0
  0
ARC
  8
DETAIL
  6
CONTINUOUS
 62
     5
 10
-384.9749999999994
 20
-45.499999999999993
 30
0.0
 40
15.0
 50
90.0
 51
180.0
  0
ARC
  8
DETAIL
  6
CONTINUOUS
 62
     5
 10
380.02500000000049
 20
-300.40000000000049
 30
0.0
 40
20.0
 50
269.99976699415578
 51
0.0002417431627196
  0
ARC
  8
DETAIL
  6
CONTINUOUS
 62
     5
 10
-379.97499999999951
 20
-300.40000000000049
 30
0.0
 40
20.0
 50
179.99976699407759
 51
270.00024174316269
  0
ARC
  8
DETAIL
  6
CONTINUOUS
 62
     5
 10
385.0250000000006
 20
-45.499999999999993
 30
0.0
 40
15.0
 50
359.9997048434052
 51
90.000306685248759
  0
ARC
  8
DETAIL
  6
CONTINUOUS
 62
     5
 10
-384.9749999999994
 20
-45.499999999999993
 30
0.0
 40
15.0
 50
89.999704843353072
 51
180.00030668517061
  0
POLYLINE
  8
DETAIL
  6
CONTINUOUS
 62
     5
 66
     1
 10
0.0
 20
0.0
 30
0.0
  0
VERTEX
  8
DETAIL
  6
CONTINUOUS
 62
     5
 10
-406.5196640257999
 20
-52.076170945600097
 30
0.0
  0
VERTEX
  8
DETAIL
  6
CONTINUOUS
 62
     5
 10
-406.49212565013391
 20
-52.073948684501786
 30
0.0
  0
VERTEX
  8
DETAIL
  6
CONTINUOUS
 62
     5
 10
-406.46457340916373
 20
-52.071901718047933
 30
0.0
  0
VERTEX
  8
DETAIL
  6
CONTINUOUS
 62
     5
 10
-406.43700862784607
 20
-52.070030359865342
 30
0.0
  0
VERTEX
  8
DETAIL
  6
CONTINUOUS
 62
     5
 10
-406.40943257812535
 20
-52.068334915585943
 30
0.0
  0
VERTEX
  8
DETAIL
  6
CONTINUOUS
 62
     5
 10
-406.38184631717212
 20
-52.066815658451326
 30
0.0
  0
VERTEX
  8
DETAIL
  6
CONTINUOUS
 62
     5
 10
-406.35425084777307
 20
-52.065472853501419
 30
0.0
  0
VERTEX
  8
DETAIL
  6
CONTINUOUS
 62
     5
 10
-406.326647230898
 20
-52.064306763422209
 30
0.0
  0
VERTEX
  8
DETAIL
  6
CONTINUOUS
 62
     5
 10
-406.29903676299978
 20
-52.063317641372301
 30
0.0
  0
SEQEND
  8
DETAIL
  6
CONTINUOUS
 62
     5
  0
POLYLINE
  8
DETAIL
  6
CONTINUOUS
 62
     5
 66
     1
 10
0.0
 20
0.0
 30
0.0
  0
VERTEX
  8
DETAIL
  6
CONTINUOUS
 62
     5
 10
-411.57224773070078
 20
-56.803315344301147
 30
0.0
  0
VERTEX
  8
DETAIL
  6
CONTINUOUS
 62
     5
 10
-411.57239040205832
 20
-56.800126800787055
 30
0.0
  0
VERTEX
  8
DETAIL
  6
CONTINUOUS
 62
     5
 10
-411.57251194341728
 20
-56.796937131385732
 30
0.0
  0
VERTEX
  8
DETAIL
  6
CONTINUOUS
 62
     5
 10
-411.57261127860528
 20
-56.793746578826607
 30
0.0
  0
VERTEX
  8
DETAIL
  6
CONTINUOUS
 62
     5
 10
-411.57268733144991
 20
-56.790555385839127
 30
0.0
  0
VERTEX
  8
DETAIL
  6
CONTINUOUS
 62
     5
 10
-411.5727390257789
 20
-56.7873637951527
 30
0.0
  0
VERTEX
  8
DETAIL
  6
CONTINUOUS
 62
     5
 10
-411.57276528541962
 20
-56.784172049496732
 30
0.0
  0
VERTEX
  8
DETAIL
  6
CONTINUOUS
 62
     5
 10
-411.57276503420002
 20
-56.780980391600679
 30
0.0
  0
SEQEND
  8
DETAIL
  6
CONTINUOUS
 62
     5
  0
POLYLINE
  8
DETAIL
  6
CONTINUOUS
 62
     5
 66
     1
 10
0.0
 20
0.0
 30
0.0
  0
VERTEX
  8
DETAIL
  6
CONTINUOUS
 62
     5
 10
-406.5196640257999
 20
-52.076170945600097
 30
0.0
  0
VERTEX
  8
DETAIL
  6
CONTINUOUS
 62
     5
 10
-406.52280753264995
 20
-52.076435833078996
 30
0.0
  0
VERTEX
  8
DETAIL
  6
CONTINUOUS
 62
     5
 10
-406.52595084835218
 20
-52.076703003792289
 30
0.0
  0
VERTEX
  8
DETAIL
  6
CONTINUOUS
 62
     5
 10
-406.52909397046801
 20
-52.076972456997822
 30
0.0
  0
VERTEX
  8
DETAIL
  6
CONTINUOUS
 62
     5
 10
-406.53223689655925
 20
-52.077244191953469
 30
0.0
  0
VERTEX
  8
DETAIL
  6
CONTINUOUS
 62
     5
 10
-406.53537962418727
 20
-52.07751820791708
 30
0.0
  0
VERTEX
  8
DETAIL
  6
CONTINUOUS
 62
     5
 10
-406.53852215091376
 20
-52.077794504146539
 30
0.0
  0
VERTEX
  8
DETAIL
  6
CONTINUOUS
 62
     5
 10
-406.54166447430038
 20
-52.078073079899703
 30
0.0
  0
SEQEND
  8
DETAIL
  6
CONTINUOUS
 62
     5
  0
POLYLINE
  8
DETAIL
  6
CONTINUOUS
 62
     5
 66
     1
 10
0.0
 20
0.0
 30
0.0
  0
VERTEX
  8
DETAIL
  6
CONTINUOUS
 62
     5
 10
-406.54166447430038
 20
-52.078073079899703
 30
0.0
  0
VERTEX
  8
DETAIL
  6
CONTINUOUS
 62
     5
 10
-406.5462174383465
 20
-52.078480788498041
 30
0.0
  0
VERTEX
  8
DETAIL
  6
CONTINUOUS
 62
     5
 10
-406.55076997779588
 20
-52.078893280905312
 30
0.0
  0
VERTEX
  8
DETAIL
  6
CONTINUOUS
 62
     5
 10
-406.5553220852687
 20
-52.079310554867966
 30
0.0
  0
VERTEX
  8
DETAIL
  6
CONTINUOUS
 62
     5
 10
-406.5598737533852
 20
-52.07973260813241
 30
0.0
  0
VERTEX
  8
DETAIL
  6
CONTINUOUS
 62
     5
 10
-406.56442497476587
 20
-52.080159438445094
 30
0.0
  0
VERTEX
  8
DETAIL
  6
CONTINUOUS
 62
     5
 10
-406.56897574203072
 20
-52.08059104355241
 30
0.0
  0
VERTEX
  8
DETAIL
  6
CONTINUOUS
 62
     5
 10
-406.57352604780039
 20
-52.081027421200822
 30
0.0
  0
SEQEND
  8
DETAIL
  6
CONTINUOUS
 62
     5
  0
POLYLINE
  8
DETAIL
  6
CONTINUOUS
 62
     5
 66
     1
 10
0.0
 20
0.0
 30
0.0
  0
VERTEX
  8
DETAIL
  6
CONTINUOUS
 62
     5
 10
-406.57352604780039
 20
-52.081027421200822
 30
0.0
  0
VERTEX
  8
DETAIL
  6
CONTINUOUS
 62
     5
 10
-406.65380838967764
 20
-52.089518533234781
 30
0.0
  0
VERTEX
  8
DETAIL
  6
CONTINUOUS
 62
     5
 10
-406.7339285344728
 20
-52.099488032434977
 30
0.0
  0
VERTEX
  8
DETAIL
  6
CONTINUOUS
 62
     5
 10
-406.81385767572965
 20
-52.11092570787433
 30
0.0
  0
VERTEX
  8
DETAIL
  6
CONTINUOUS
 62
     5
 10
-406.89356712635504
 20
-52.12382114113737
 30
0.0
  0
VERTEX
  8
DETAIL
  6
CONTINUOUS
 62
     5
 10
-406.97302953840284
 20
-52.13816158597011
 30
0.0
  0
VERTEX
  8
DETAIL
  6
CONTINUOUS
 62
     5
 10
-407.05221840543123
 20
-52.153932833331311
 30
0.0
  0
VERTEX
  8
DETAIL
  6
CONTINUOUS
 62
     5
 10
-407.1311072340485
 20
-52.171120651495642
 30
0.0
  0
VERTEX
  8
DETAIL
  6
CONTINUOUS
 62
     5
 10
-407.20966998336553
 20
-52.18971074099931
 30
0.0
  0
VERTEX
  8
DETAIL
  6
CONTINUOUS
 62
     5
 10
-407.28788584089892
 20
-52.209688019700479
 30
0.0
  0
SEQEND
  8
DETAIL
  6
CONTINUOUS
 62
     5
  0
POLYLINE
  8
DETAIL
  6
CONTINUOUS
 62
     5
 66
     1
 10
0.0
 20
0.0
 30
0.0
  0
VERTEX
  8
DETAIL
  6
CONTINUOUS
 62
     5
 10
-407.28839984599972
 20
-141.6901758292997
 30
0.0
  0
VERTEX
  8
DETAIL
  6
CONTINUOUS
 62
     5
 10
-407.21012538416687
 20
-141.71017719526967
 30
0.0
  0
VERTEX
  8
DETAIL
  6
CONTINUOUS
 62
     5
 10
-407.1315033796979
 20
-141.72878930583232
 30
0.0
  0
VERTEX
  8
DETAIL
  6
CONTINUOUS
 62
     5
 10
-407.05255469101849
 20
-141.74599703239303
 30
0.0
  0
VERTEX
  8
DETAIL
  6
CONTINUOUS
 62
     5
 10
-406.97330540158504
 20
-141.76178604225711
 30
0.0
  0
VERTEX
  8
DETAIL
  6
CONTINUOUS
 62
     5
 10
-406.89378205577697
 20
-141.7761420729399
 30
0.0
  0
VERTEX
  8
DETAIL
  6
CONTINUOUS
 62
     5
 10
-406.81401121088282
 20
-141.78905088421794
 30
0.0
  0
VERTEX
  8
DETAIL
  6
CONTINUOUS
 62
     5
 10
-406.7340202702236
 20
-141.8004996948828
 30
0.0
  0
VERTEX
  8
DETAIL
  6
CONTINUOUS
 62
     5
 10
-406.65383799133429
 20
-141.81047805911913
 30
0.0
  0
VERTEX
  8
DETAIL
  6
CONTINUOUS
 62
     5
 10
-406.57349325339959
 20
-141.8189757409009
 30
0.0
  0
SEQEND
  8
DETAIL
  6
CONTINUOUS
 62
     5
  0
POLYLINE
  8
DETAIL
  6
CONTINUOUS
 62
     5
 66
     1
 10
0.0
 20
0.0
 30
0.0
  0
VERTEX
  8
DETAIL
  6
CONTINUOUS
 62
     5
 10
-406.57349325339959
 20
-141.8189757409009
 30
0.0
  0
VERTEX
  8
DETAIL
  6
CONTINUOUS
 62
     5
 10
-406.56895962159911
 20
-141.81941049371127
 30
0.0
  0
VERTEX
  8
DETAIL
  6
CONTINUOUS
 62
     5
 10
-406.56442553171985
 20
-141.81984050889074
 30
0.0
  0
VERTEX
  8
DETAIL
  6
CONTINUOUS
 62
     5
 10
-406.55989099106057
 20
-141.82026578421002
 30
0.0
  0
VERTEX
  8
DETAIL
  6
CONTINUOUS
 62
     5
 10
-406.55535600692014
 20
-141.82068631743994
 30
0.0
  0
VERTEX
  8
DETAIL
  6
CONTINUOUS
 62
     5
 10
-406.55082058659752
 20
-141.82110210635122
 30
0.0
  0
VERTEX
  8
DETAIL
  6
CONTINUOUS
 62
     5
 10
-406.54628473739109
 20
-141.82151314871462
 30
0.0
  0
VERTEX
  8
DETAIL
  6
CONTINUOUS
 62
     5
 10
-406.54174846659993
 20
-141.8219194423009
 30
0.0
  0
SEQEND
  8
DETAIL
  6
CONTINUOUS
 62
     5
  0
POLYLINE
  8
DETAIL
  6
CONTINUOUS
 62
     5
 66
     1
 10
0.0
 20
0.0
 30
0.0
  0
VERTEX
  8
DETAIL
  6
CONTINUOUS
 62
     5
 10
-406.54174846659993
 20
-141.8219194423009
 30
0.0
  0
VERTEX
  8
DETAIL
  6
CONTINUOUS
 62
     5
 10
-406.5385941489763
 20
-141.82219913861763
 30
0.0
  0
VERTEX
  8
DETAIL
  6
CONTINUOUS
 62
     5
 10
-406.53543962641186
 20
-141.82247653798683
 30
0.0
  0
VERTEX
  8
DETAIL
  6
CONTINUOUS
 62
     5
 10
-406.53228490137309
 20
-141.8227516396565
 30
0.0
  0
VERTEX
  8
DETAIL
  6
CONTINUOUS
 62
     5
 10
-406.52912997632615
 20
-141.82302444287461
 30
0.0
  0
VERTEX
  8
DETAIL
  6
CONTINUOUS
 62
     5
 10
-406.52597485373741
 20
-141.82329494688915
 30
0.0
  0
VERTEX
  8
DETAIL
  6
CONTINUOUS
 62
     5
 10
-406.52281953607326
 20
-141.82356315094813
 30
0.0
  0
VERTEX
  8
DETAIL
  6
CONTINUOUS
 62
     5
 10
-406.5196640257999
 20
-141.82382905429949
 30
0.0
  0
SEQEND
  8
DETAIL
  6
CONTINUOUS
 62
     5
  0
POLYLINE
  8
DETAIL
  6
CONTINUOUS
 62
     5
 66
     1
 10
0.0
 20
0.0
 30
0.0
  0
VERTEX
  8
DETAIL
  6
CONTINUOUS
 62
     5
 10
-406.5196640257999
 20
-141.82382905429949
 30
0.0
  0
VERTEX
  8
DETAIL
  6
CONTINUOUS
 62
     5
 10
-406.51022915475835
 20
-141.8246102742248
 30
0.0
  0
VERTEX
  8
DETAIL
  6
CONTINUOUS
 62
     5
 10
-406.50079254741161
 20
-141.8253709353821
 30
0.0
  0
VERTEX
  8
DETAIL
  6
CONTINUOUS
 62
     5
 10
-406.49135427050805
 20
-141.82611102431005
 30
0.0
  0
VERTEX
  8
DETAIL
  6
CONTINUOUS
 62
     5
 10
-406.48191439079653
 20
-141.82683052754726
 30
0.0
  0
VERTEX
  8
DETAIL
  6
CONTINUOUS
 62
     5
 10
-406.47247297502565
 20
-141.82752943163226
 30
0.0
  0
VERTEX
  8
DETAIL
  6
CONTINUOUS
 62
     5
 10
-406.46303008994425
 20
-141.82820772310367
 30
0.0
  0
VERTEX
  8
DETAIL
  6
CONTINUOUS
 62
     5
 10
-406.45358580230089
 20
-141.82886538850011
 30
0.0
  0
SEQEND
  8
DETAIL
  6
CONTINUOUS
 62
     5
  0
POLYLINE
  8
DETAIL
  6
CONTINUOUS
 62
     5
 66
     1
 10
0.0
 20
0.0
 30
0.0
  0
VERTEX
  8
DETAIL
  6
CONTINUOUS
 62
     5
 10
-406.45358580230089
 20
-141.82886538850011
 30
0.0
  0
VERTEX
  8
DETAIL
  6
CONTINUOUS
 62
     5
 10
-406.44116306404499
 20
-141.82969889840652
 30
0.0
  0
VERTEX
  8
DETAIL
  6
CONTINUOUS
 62
     5
 10
-406.4287379005263
 20
-141.83049669654739
 30
0.0
  0
VERTEX
  8
DETAIL
  6
CONTINUOUS
 62
     5
 10
-406.4163103864027
 20
-141.83125875805715
 30
0.0
  0
VERTEX
  8
DETAIL
  6
CONTINUOUS
 62
     5
 10
-406.40388066625945
 20
-141.83198505573577
 30
0.0
  0
VERTEX
  8
DETAIL
  6
CONTINUOUS
 62
     5
 10
-406.39144888593705
 20
-141.83267556234134
 30
0.0
  0
VERTEX
  8
DETAIL
  6
CONTINUOUS
 62
     5
 10
-406.37901519127587
 20
-141.8333302506318
 30
0.0
  0
VERTEX
  8
DETAIL
  6
CONTINUOUS
 62
     5
 10
-406.36657972811633
 20
-141.83394909336525
 30
0.0
  0
VERTEX
  8
DETAIL
  6
CONTINUOUS
 62
     5
 10
-406.35414264229888
 20
-141.83453206329969
 30
0.0
  0
SEQEND
  8
DETAIL
  6
CONTINUOUS
 62
     5
  0
POLYLINE
  8
DETAIL
  6
CONTINUOUS
 62
     5
 66
     1
 10
0.0
 20
0.0
 30
0.0
  0
VERTEX
  8
DETAIL
  6
CONTINUOUS
 62
     5
 10
-406.35414264229888
 20
-141.83453206329969
 30
0.0
  0
VERTEX
  8
DETAIL
  6
CONTINUOUS
 62
     5
 10
-406.35128587962805
 20
-141.83466089117772
 30
0.0
  0
VERTEX
  8
DETAIL
  6
CONTINUOUS
 62
     5
 10
-406.34842903062304
 20
-141.83478782553607
 30
0.0
  0
VERTEX
  8
DETAIL
  6
CONTINUOUS
 62
     5
 10
-406.34557209715837
 20
-141.83491286608231
 30
0.0
  0
VERTEX
  8
DETAIL
  6
CONTINUOUS
 62
     5
 10
-406.34271508110913
 20
-141.83503601252426
 30
0.0
  0
VERTEX
  8
DETAIL
  6
CONTINUOUS
 62
     5
 10
-406.33985798434981
 20
-141.83515726456966
 30
0.0
  0
VERTEX
  8
DETAIL
  6
CONTINUOUS
 62
     5
 10
-406.33700080875542
 20
-141.83527662192623
 30
0.0
  0
VERTEX
  8
DETAIL
  6
CONTINUOUS
 62
     5
 10
-406.33414355620062
 20
-141.8353940843017
 30
0.0
  0
SEQEND
  8
DETAIL
  6
CONTINUOUS
 62
     5
  0
POLYLINE
  8
DETAIL
  6
CONTINUOUS
 62
     5
 66
     1
 10
0.0
 20
0.0
 30
0.0
  0
VERTEX
  8
DETAIL
  6
CONTINUOUS
 62
     5
 10
-406.33414355620062
 20
-141.8353940843017
 30
0.0
  0
VERTEX
  8
DETAIL
  6
CONTINUOUS
 62
     5
 10
-406.32518518150857
 20
-141.8357500588304
 30
0.0
  0
VERTEX
  8
DETAIL
  6
CONTINUOUS
 62
     5
 10
-406.31622603708286
 20
-141.83608739885278
 30
0.0
  0
VERTEX
  8
DETAIL
  6
CONTINUOUS
 62
     5
 10
-406.30726618095616
 20
-141.83640609524113
 30
0.0
  0
VERTEX
  8
DETAIL
  6
CONTINUOUS
 62
     5
 10
-406.29830567116159
 20
-141.83670613886773
 30
0.0
  0
VERTEX
  8
DETAIL
  6
CONTINUOUS
 62
     5
 10
-406.28934456573188
 20
-141.83698752060491
 30
0.0
  0
VERTEX
  8
DETAIL
  6
CONTINUOUS
 62
     5
 10
-406.28038292270003
 20
-141.83725023132499
 30
0.0
  0
VERTEX
  8
DETAIL
  6
CONTINUOUS
 62
     5
 10
-406.27142080009878
 20
-141.83749426190019
 30
0.0
  0
SEQEND
  8
DETAIL
  6
CONTINUOUS
 62
     5
  0
POLYLINE
  8
DETAIL
  6
CONTINUOUS
 62
     5
 66
     1
 10
0.0
 20
0.0
 30
0.0
  0
VERTEX
  8
DETAIL
  6
CONTINUOUS
 62
     5
 10
-411.57276503779929
 20
-137.11901959769961
 30
0.0
  0
VERTEX
  8
DETAIL
  6
CONTINUOUS
 62
     5
 10
-411.57276528781256
 20
-137.11582790533367
 30
0.0
  0
VERTEX
  8
DETAIL
  6
CONTINUOUS
 62
     5
 10
-411.57273902640156
 20
-137.11263612521608
 30
0.0
  0
VERTEX
  8
DETAIL
  6
CONTINUOUS
 62
     5
 10
-411.57268732977531
 20
-137.10944450008245
 30
0.0
  0
VERTEX
  8
DETAIL
  6
CONTINUOUS
 62
     5
 10
-411.57261127414296
 20
-137.10625327266848
 30
0.0
  0
VERTEX
  8
DETAIL
  6
CONTINUOUS
 62
     5
 10
-411.57251193571369
 20
-137.10306268570989
 30
0.0
  0
VERTEX
  8
DETAIL
  6
CONTINUOUS
 62
     5
 10
-411.57239039069663
 20
-137.09987298194227
 30
0.0
  0
VERTEX
  8
DETAIL
  6
CONTINUOUS
 62
     5
 10
-411.57224771530082
 20
-137.0966844041013
 30
0.0
  0
SEQEND
  8
DETAIL
  6
CONTINUOUS
 62
     5
  0
LINE
  8
BASIS
  6
CENTER
 62
     6
 10
199.02499999999921
 20
-336.80000000000018
 30
0.0
 11
184.02489999999941
 21
-336.80000000000018
 31
0.0
  0
LINE
  8
BASIS
  6
CENTER
 62
     6
 10
199.02499999999921
 20
-336.80000000000018
 30
0.0
 11
214.0251000000012
 21
-336.80000000000018
 31
0.0
  0
LINE
  8
BASIS
  6
CENTER
 62
     6
 10
199.02499999999921
 20
-24.300000000001091
 30
0.0
 11
184.02489999999941
 21
-24.300000000001091
 31
0.0
  0
LINE
  8
BASIS
  6
CENTER
 62
     6
 10
199.02499999999921
 20
-24.300000000001091
 30
0.0
 11
214.0251000000012
 21
-24.300000000001091
 31
0.0
  0
LINE
  8
BASIS
  6
CENTER
 62
     6
 10
199.02499999999921
 20
-24.300000000001091
 30
0.0
 11
199.02499999999921
 21
-321.79990000000038
 31
0.0
  0
LINE
  8
BASIS
  6
CENTER
 62
     6
 10
199.02499999999921
 20
-336.80000000000018
 30
0.0
 11
199.02499999999921
 21
-351.80009999999987
 31
0.0
  0
LINE
  8
BASIS
  6
CENTER
 62
     6
 10
199.02499999999921
 20
-336.80000000000018
 30
0.0
 11
199.02499999999921
 21
-321.79990000000038
 31
0.0
  0
LINE
  8
BASIS
  6
CENTER
 62
     6
 10
199.02499999999921
 20
-24.300000000001091
 30
0.0
 11
199.02499999999921
 21
-9.2998999999990701
 31
0.0
  0
CIRCLE
  8
DETAIL
  6
CONTINUOUS
 62
     5
 10
-72.674999999999272
 20
-236.9000000000014
 30
0.0
 40
10.0
  0
CIRCLE
  8
DETAIL
  6
CONTINUOUS
 62
     5
 10
-72.674999999999272
 20
-73.999999999999091
 30
0.0
 40
10.0
  0
LINE
  8
BASIS
  6
CENTER
 62
     6
 10
-310.97500000000082
 20
-336.80000000000018
 30
0.0
 11
-325.97510000000062
 21
-336.80000000000018
 31
0.0
  0
LINE
  8
BASIS
  6
CENTER
 62
     6
 10
-310.97500000000082
 20
-336.80000000000018
 30
0.0
 11
-295.9748999999988
 21
-336.80000000000018
 31
0.0
  0
LINE
  8
BASIS
  6
CENTER
 62
     6
 10
-310.97500000000082
 20
-24.300000000001091
 30
0.0
 11
-325.97510000000062
 21
-24.300000000001091
 31
0.0
  0
LINE
  8
BASIS
  6
CENTER
 62
     6
 10
-310.97500000000082
 20
-24.300000000001091
 30
0.0
 11
-295.9748999999988
 21
-24.300000000001091
 31
0.0
  0
LINE
  8
BASIS
  6
CENTER
 62
     6
 10
-310.97500000000082
 20
-24.300000000001091
 30
0.0
 11
-310.97500000000082
 21
-321.79990000000038
 31
0.0
  0
LINE
  8
BASIS
  6
CENTER
 62
     6
 10
-310.97500000000082
 20
-336.80000000000018
 30
0.0
 11
-310.97500000000082
 21
-351.80009999999987
 31
0.0
  0
LINE
  8
BASIS
  6
CENTER
 62
     6
 10
-310.97500000000082
 20
-336.80000000000018
 30
0.0
 11
-310.97500000000082
 21
-321.79990000000038
 31
0.0
  0
LINE
  8
BASIS
  6
CENTER
 62
     6
 10
-310.97500000000082
 20
-24.300000000001091
 30
0.0
 11
-310.97500000000082
 21
-9.2998999999990701
 31
0.0
  0
LINE
  8
BASIS
  6
CENTER
 62
     6
 10
417.92500000000013
 20
-188.39999999999961
 30
0.0
 11
388.92499999999927
 21
-188.39999999999961
 31
0.0
  0
LINE
  8
BASIS
  6
CENTER
 62
     6
 10
388.92499999999927
 20
-154.90000000000049
 30
0.0
 11
417.92499999999973
 21
-154.90000000000049
 31
0.0
  0
LINE
  8
DETAIL
  6
CONTINUOUS
 62
     5
 10
400.02500000000049
 20
-161.9000000000014
 30
0.0
 11
417.92500000000013
 21
-161.90000000000049
 31
0.0
  0
ARC
  8
DETAIL
  6
CONTINUOUS
 62
     5
 10
417.92500000000013
 20
-154.90000000000049
 30
0.0
 40
7.0
 50
270.0
 51
0.0
  0
LINE
  8
DETAIL
  6
CONTINUOUS
 62
     5
 10
400.02500000000049
 20
-147.900000000001
 30
0.0
 11
410.92499999999973
 21
-147.900000000001
 31
0.0
  0
LINE
  8
DETAIL
  6
CONTINUOUS
 62
     5
 10
417.87499999999949
 20
-193.19999999999979
 30
0.0
 11
400.02500000000049
 21
-193.19999999999979
 31
0.0
  0
ARC
  8
DETAIL
  6
CONTINUOUS
 62
     5
 10
417.87499999999949
 20
-188.3000000000001
 30
0.0
 40
4.9000000000000004
 50
270.0
 51
0.0
  0
LINE
  8
DETAIL
  6
CONTINUOUS
 62
     5
 10
413.07500000000113
 20
-183.5999999999994
 30
0.0
 11
400.02500000000049
 21
-183.5999999999994
 31
0.0
  0
LINE
  8
DETAIL
  6
CONTINUOUS
 62
     5
 10
413.07500000000113
 20
-169.22414143970079
 30
0.0
 11
413.07500000000113
 21
-183.5999999999994
 31
0.0
  0
LINE
  8
DETAIL
  6
CONTINUOUS
 62
     5
 10
422.77499999999912
 20
-169.22414143970079
 30
0.0
 11
422.77499999999958
 21
-188.3000000000001
 31
0.0
  0
LINE
  8
DETAIL
  6
CONTINUOUS
 62
     5
 10
424.92500000000013
 20
-154.90000000000049
 30
0.0
 11
424.92500000000058
 21
-130.3568974193808
 31
0.0
  0
POLYLINE
  8
DETAIL
  6
CONTINUOUS
 62
     5
 66
     1
 10
0.0
 20
0.0
 30
0.0
  0
VERTEX
  8
DETAIL
  6
CONTINUOUS
 62
     5
 10
417.92500000000013
 20
-165.50882589060069
 30
0.0
  0
VERTEX
  8
DETAIL
  6
CONTINUOUS
 62
     5
 10
418.44347684310696
 20
-165.53011678474044
 30
0.0
  0
VERTEX
  8
DETAIL
  6
CONTINUOUS
 62
     5
 10
418.95891214117904
 20
-165.59423388763355
 30
0.0
  0
VERTEX
  8
DETAIL
  6
CONTINUOUS
 62
     5
 10
419.46707874329195
 20
-165.70158883101473
 30
0.0
  0
VERTEX
  8
DETAIL
  6
CONTINUOUS
 62
     5
 10
419.96369744542955
 20
-165.85298206867785
 30
0.0
  0
VERTEX
  8
DETAIL
  6
CONTINUOUS
 62
     5
 10
420.44439516844005
 20
-166.04941882004189
 30
0.0
  0
VERTEX
  8
DETAIL
  6
CONTINUOUS
 62
     5
 10
420.90359878881799
 20
-166.29200882432409
 30
0.0
  0
VERTEX
  8
DETAIL
  6
CONTINUOUS
 62
     5
 10
421.33464885492975
 20
-166.58192768818878
 30
0.0
  0
VERTEX
  8
DETAIL
  6
CONTINUOUS
 62
     5
 10
421.72937408520067
 20
-166.91970914705166
 30
0.0
  0
VERTEX
  8
DETAIL
  6
CONTINUOUS
 62
     5
 10
422.07789778472625
 20
-167.30508674106031
 30
0.0
  0
VERTEX
  8
DETAIL
  6
CONTINUOUS
 62
     5
 10
422.36883936131551
 20
-167.73572608469885
 30
0.0
  0
VERTEX
  8
DETAIL
  6
CONTINUOUS
 62
     5
 10
422.58941638130835
 20
-168.20675786021903
 30
0.0
  0
VERTEX
  8
DETAIL
  6
CONTINUOUS
 62
     5
 10
422.72792029653812
 20
-168.70777407800648
 30
0.0
  0
VERTEX
  8
DETAIL
  6
CONTINUOUS
 62
     5
 10
422.7747791523006
 20
-169.22414143970079
 30
0.0
  0
SEQEND
  8
DETAIL
  6
CONTINUOUS
 62
     5
  0
POLYLINE
  8
DETAIL
  6
CONTINUOUS
 62
     5
 66
     1
 10
0.0
 20
0.0
 30
0.0
  0
VERTEX
  8
DETAIL
  6
CONTINUOUS
 62
     5
 10
413.07522084759961
 20
-169.22414143970079
 30
0.0
  0
VERTEX
  8
DETAIL
  6
CONTINUOUS
 62
     5
 10
413.12207970336357
 20
-168.70777407799918
 30
0.0
  0
VERTEX
  8
DETAIL
  6
CONTINUOUS
 62
     5
 10
413.26058361859714
 20
-168.20675786020513
 30
0.0
  0
VERTEX
  8
DETAIL
  6
CONTINUOUS
 62
     5
 10
413.48116063859567
 20
-167.73572608467941
 30
0.0
  0
VERTEX
  8
DETAIL
  6
CONTINUOUS
 62
     5
 10
413.77210221519226
 20
-167.30508674103683
 30
0.0
  0
VERTEX
  8
DETAIL
  6
CONTINUOUS
 62
     5
 10
414.12062591472613
 20
-166.91970914702617
 30
0.0
  0
VERTEX
  8
DETAIL
  6
CONTINUOUS
 62
     5
 10
414.51535114500604
 20
-166.58192768816247
 30
0.0
  0
VERTEX
  8
DETAIL
  6
CONTINUOUS
 62
     5
 10
414.94640121112656
 20
-166.29200882429652
 30
0.0
  0
VERTEX
  8
DETAIL
  6
CONTINUOUS
 62
     5
 10
415.40560483151324
 20
-166.04941882001489
 30
0.0
  0
VERTEX
  8
DETAIL
  6
CONTINUOUS
 62
     5
 10
415.88630255453444
 20
-165.8529820686592
 30
0.0
  0
VERTEX
  8
DETAIL
  6
CONTINUOUS
 62
     5
 10
416.38292125668386
 20
-165.7015888310101
 30
0.0
  0
VERTEX
  8
DETAIL
  6
CONTINUOUS
 62
     5
 10
416.89108785880694
 20
-165.59423388763767
 30
0.0
  0
VERTEX
  8
DETAIL
  6
CONTINUOUS
 62
     5
 10
417.40652315688658
 20
-165.53011678474317
 30
0.0
  0
VERTEX
  8
DETAIL
  6
CONTINUOUS
 62
     5
 10
417.92500000000013
 20
-165.50882589060066
 30
0.0
  0
SEQEND
  8
DETAIL
  6
CONTINUOUS
 62
     5
  0
POLYLINE
  8
DETAIL
  6
CONTINUOUS
 62
     5
 66
     1
 10
0.0
 20
0.0
 30
0.0
  0
VERTEX
  8
DETAIL
  6
CONTINUOUS
 62
     5
 10
417.92500000000013
 20
-124.9945694105363
 30
0.0
  0
VERTEX
  8
DETAIL
  6
CONTINUOUS
 62
     5
 10
418.62036788945443
 20
-125.02111218330251
 30
0.0
  0
VERTEX
  8
DETAIL
  6
CONTINUOUS
 62
     5
 10
419.31168705302639
 20
-125.10083938727821
 30
0.0
  0
VERTEX
  8
DETAIL
  6
CONTINUOUS
 62
     5
 10
419.99464808017331
 20
-125.23432578214755
 30
0.0
  0
VERTEX
  8
DETAIL
  6
CONTINUOUS
 62
     5
 10
420.66473063513388
 20
-125.42234512216645
 30
0.0
  0
VERTEX
  8
DETAIL
  6
CONTINUOUS
 62
     5
 10
421.31659938887992
 20
-125.66603506393965
 30
0.0
  0
VERTEX
  8
DETAIL
  6
CONTINUOUS
 62
     5
 10
421.94439170990114
 20
-125.96667024050787
 30
0.0
  0
VERTEX
  8
DETAIL
  6
CONTINUOUS
 62
     5
 10
422.54076208640038
 20
-126.32552656297693
 30
0.0
  0
VERTEX
  8
DETAIL
  6
CONTINUOUS
 62
     5
 10
423.09737263057701
 20
-126.74372573822903
 30
0.0
  0
VERTEX
  8
DETAIL
  6
CONTINUOUS
 62
     5
 10
423.60369508515731
 20
-127.22150465053377
 30
0.0
  0
VERTEX
  8
DETAIL
  6
CONTINUOUS
 62
     5
 10
424.04783366937932
 20
-127.75794682975453
 30
0.0
  0
VERTEX
  8
DETAIL
  6
CONTINUOUS
 62
     5
 10
424.41575107624823
 20
-128.34906535519315
 30
0.0
  0
VERTEX
  8
DETAIL
  6
CONTINUOUS
 62
     5
 10
424.6930671521348
 20
-128.98794169948812
 30
0.0
  0
VERTEX
  8
DETAIL
  6
CONTINUOUS
 62
     5
 10
424.86596636148073
 20
-129.66323780763122
 30
0.0
  0
VERTEX
  8
DETAIL
  6
CONTINUOUS
 62
     5
 10
424.92500000000058
 20
-130.3568974193808
 30
0.0
  0
SEQEND
  8
DETAIL
  6
CONTINUOUS
 62
     5
  0
LINE
  8
DETAIL
  6
CONTINUOUS
 62
     5
 10
410.92499999999973
 20
-147.900000000001
 30
0.0
 11
410.92499999999973
 21
-130.3568974193808
 31
0.0
  0
POLYLINE
  8
DETAIL
  6
CONTINUOUS
 62
     5
 66
     1
 10
0.0
 20
0.0
 30
0.0
  0
VERTEX
  8
DETAIL
  6
CONTINUOUS
 62
     5
 10
417.92500000000013
 20
-124.9945694105363
 30
0.0
  0
VERTEX
  8
DETAIL
  6
CONTINUOUS
 62
     5
 10
417.22963211054571
 20
-125.02111218330251
 30
0.0
  0
VERTEX
  8
DETAIL
  6
CONTINUOUS
 62
     5
 10
416.53831294697386
 20
-125.10083938727821
 30
0.0
  0
VERTEX
  8
DETAIL
  6
CONTINUOUS
 62
     5
 10
415.855351919827
 20
-125.23432578214755
 30
0.0
  0
VERTEX
  8
DETAIL
  6
CONTINUOUS
 62
     5
 10
415.18526936486637
 20
-125.42234512216645
 30
0.0
  0
VERTEX
  8
DETAIL
  6
CONTINUOUS
 62
     5
 10
414.53340061112038
 20
-125.66603506393965
 30
0.0
  0
VERTEX
  8
DETAIL
  6
CONTINUOUS
 62
     5
 10
413.90560829009911
 20
-125.96667024050787
 30
0.0
  0
VERTEX
  8
DETAIL
  6
CONTINUOUS
 62
     5
 10
413.30923791359987
 20
-126.32552656297693
 30
0.0
  0
VERTEX
  8
DETAIL
  6
CONTINUOUS
 62
     5
 10
412.75262736942312
 20
-126.74372573822903
 30
0.0
  0
VERTEX
  8
DETAIL
  6
CONTINUOUS
 62
     5
 10
412.24630491484299
 20
-127.22150465053377
 30
0.0
  0
VERTEX
  8
DETAIL
  6
CONTINUOUS
 62
     5
 10
411.80216633062082
 20
-127.75794682975453
 30
0.0
  0
VERTEX
  8
DETAIL
  6
CONTINUOUS
 62
     5
 10
411.43424892375191
 20
-128.34906535519315
 30
0.0
  0
VERTEX
  8
DETAIL
  6
CONTINUOUS
 62
     5
 10
411.15693284786562
 20
-128.98794169948812
 30
0.0
  0
VERTEX
  8
DETAIL
  6
CONTINUOUS
 62
     5
 10
410.98403363851963
 20
-129.66323780763122
 30
0.0
  0
VERTEX
  8
DETAIL
  6
CONTINUOUS
 62
     5
 10
410.92499999999973
 20
-130.3568974193808
 30
0.0
  0
SEQEND
  8
DETAIL
  6
CONTINUOUS
 62
     5
  0
POLYLINE
  8
DETAIL
  6
CONTINUOUS
 62
     5
 66
     1
 10
0.0
 20
0.0
 30
0.0
  0
VERTEX
  8
DETAIL
  6
CONTINUOUS
 62
     5
 10
417.92500000000013
 20
-135.71922542822449
 30
0.0
  0
VERTEX
  8
DETAIL
  6
CONTINUOUS
 62
     5
 10
418.62036788945443
 20
-135.69268265545827
 30
0.0
  0
VERTEX
  8
DETAIL
  6
CONTINUOUS
 62
     5
 10
419.31168705302639
 20
-135.61295545148258
 30
0.0
  0
VERTEX
  8
DETAIL
  6
CONTINUOUS
 62
     5
 10
419.99464808017331
 20
-135.47946905661325
 30
0.0
  0
VERTEX
  8
DETAIL
  6
CONTINUOUS
 62
     5
 10
420.66473063513388
 20
-135.29144971659437
 30
0.0
  0
VERTEX
  8
DETAIL
  6
CONTINUOUS
 62
     5
 10
421.31659938887992
 20
-135.04775977482112
 30
0.0
  0
VERTEX
  8
DETAIL
  6
CONTINUOUS
 62
     5
 10
421.94439170990114
 20
-134.7471245982529
 30
0.0
  0
VERTEX
  8
DETAIL
  6
CONTINUOUS
 62
     5
 10
422.54076208640038
 20
-134.38826827578379
 30
0.0
  0
VERTEX
  8
DETAIL
  6
CONTINUOUS
 62
     5
 10
423.09737263057701
 20
-133.97006910053167
 30
0.0
  0
VERTEX
  8
DETAIL
  6
CONTINUOUS
 62
     5
 10
423.60369508515731
 20
-133.49229018822695
 30
0.0
  0
VERTEX
  8
DETAIL
  6
CONTINUOUS
 62
     5
 10
424.04783366937932
 20
-132.95584800900613
 30
0.0
  0
VERTEX
  8
DETAIL
  6
CONTINUOUS
 62
     5
 10
424.41575107624823
 20
-132.36472948356752
 30
0.0
  0
VERTEX
  8
DETAIL
  6
CONTINUOUS
 62
     5
 10
424.6930671521348
 20
-131.72585313927263
 30
0.0
  0
VERTEX
  8
DETAIL
  6
CONTINUOUS
 62
     5
 10
424.86596636148073
 20
-131.05055703112959
 30
0.0
  0
VERTEX
  8
DETAIL
  6
CONTINUOUS
 62
     5
 10
424.92500000000058
 20
-130.35689741937989
 30
0.0
  0
SEQEND
  8
DETAIL
  6
CONTINUOUS
 62
     5
  0
POLYLINE
  8
DETAIL
  6
CONTINUOUS
 62
     5
 66
     1
 10
0.0
 20
0.0
 30
0.0
  0
VERTEX
  8
DETAIL
  6
CONTINUOUS
 62
     5
 10
417.92500000000013
 20
-135.71922542822449
 30
0.0
  0
VERTEX
  8
DETAIL
  6
CONTINUOUS
 62
     5
 10
417.22963211054571
 20
-135.69268265545827
 30
0.0
  0
VERTEX
  8
DETAIL
  6
CONTINUOUS
 62
     5
 10
416.53831294697386
 20
-135.61295545148258
 30
0.0
  0
VERTEX
  8
DETAIL
  6
CONTINUOUS
 62
     5
 10
415.855351919827
 20
-135.47946905661325
 30
0.0
  0
VERTEX
  8
DETAIL
  6
CONTINUOUS
 62
     5
 10
415.18526936486637
 20
-135.29144971659437
 30
0.0
  0
VERTEX
  8
DETAIL
  6
CONTINUOUS
 62
     5
 10
414.53340061112038
 20
-135.04775977482112
 30
0.0
  0
VERTEX
  8
DETAIL
  6
CONTINUOUS
 62
     5
 10
413.90560829009911
 20
-134.7471245982529
 30
0.0
  0
VERTEX
  8
DETAIL
  6
CONTINUOUS
 62
     5
 10
413.30923791359987
 20
-134.38826827578379
 30
0.0
  0
VERTEX
  8
DETAIL
  6
CONTINUOUS
 62
     5
 10
412.75262736942312
 20
-133.97006910053167
 30
0.0
  0
VERTEX
  8
DETAIL
  6
CONTINUOUS
 62
     5
 10
412.24630491484299
 20
-133.49229018822695
 30
0.0
  0
VERTEX
  8
DETAIL
  6
CONTINUOUS
 62
     5
 10
411.80216633062082
 20
-132.95584800900613
 30
0.0
  0
VERTEX
  8
DETAIL
  6
CONTINUOUS
 62
     5
 10
411.43424892375191
 20
-132.36472948356752
 30
0.0
  0
VERTEX
  8
DETAIL
  6
CONTINUOUS
 62
     5
 10
411.15693284786562
 20
-131.72585313927263
 30
0.0
  0
VERTEX
  8
DETAIL
  6
CONTINUOUS
 62
     5
 10
410.98403363851963
 20
-131.05055703112959
 30
0.0
  0
VERTEX
  8
DETAIL
  6
CONTINUOUS
 62
     5
 10
410.92499999999973
 20
-130.35689741937989
 30
0.0
  0
SEQEND
  8
DETAIL
  6
CONTINUOUS
 62
     5
  0
POLYLINE
  8
DETAIL
  6
CONTINUOUS
 62
     5
 66
     1
 10
0.0
 20
0.0
 30
0.0
  0
VERTEX
  8
DETAIL
  6
CONTINUOUS
 62
     5
 10
417.92500000000013
 20
-172.93945698879989
 30
0.0
  0
VERTEX
  8
DETAIL
  6
CONTINUOUS
 62
     5
 10
418.44347684310691
 20
-172.91816609466017
 30
0.0
  0
VERTEX
  8
DETAIL
  6
CONTINUOUS
 62
     5
 10
418.95891214117904
 20
-172.85404899176712
 30
0.0
  0
VERTEX
  8
DETAIL
  6
CONTINUOUS
 62
     5
 10
419.46707874329189
 20
-172.74669404838593
 30
0.0
  0
VERTEX
  8
DETAIL
  6
CONTINUOUS
 62
     5
 10
419.96369744542943
 20
-172.59530081072279
 30
0.0
  0
VERTEX
  8
DETAIL
  6
CONTINUOUS
 62
     5
 10
420.44439516844011
 20
-172.39886405935891
 30
0.0
  0
VERTEX
  8
DETAIL
  6
CONTINUOUS
 62
     5
 10
420.90359878881799
 20
-172.15627405507692
 30
0.0
  0
VERTEX
  8
DETAIL
  6
CONTINUOUS
 62
     5
 10
421.33464885492998
 20
-171.86635519121239
 30
0.0
  0
VERTEX
  8
DETAIL
  6
CONTINUOUS
 62
     5
 10
421.72937408520085
 20
-171.52857373234946
 30
0.0
  0
VERTEX
  8
DETAIL
  6
CONTINUOUS
 62
     5
 10
422.07789778472619
 20
-171.14319613834076
 30
0.0
  0
VERTEX
  8
DETAIL
  6
CONTINUOUS
 62
     5
 10
422.36883936131528
 20
-170.71255679470212
 30
0.0
  0
VERTEX
  8
DETAIL
  6
CONTINUOUS
 62
     5
 10
422.58941638130818
 20
-170.24152501918195
 30
0.0
  0
VERTEX
  8
DETAIL
  6
CONTINUOUS
 62
     5
 10
422.72792029653795
 20
-169.74050880139461
 30
0.0
  0
VERTEX
  8
DETAIL
  6
CONTINUOUS
 62
     5
 10
422.7747791523006
 20
-169.2241414397003
 30
0.0
  0
SEQEND
  8
DETAIL
  6
CONTINUOUS
 62
     5
  0
POLYLINE
  8
DETAIL
  6
CONTINUOUS
 62
     5
 66
     1
 10
0.0
 20
0.0
 30
0.0
  0
VERTEX
  8
DETAIL
  6
CONTINUOUS
 62
     5
 10
413.07522084759961
 20
-169.2241414397003
 30
0.0
  0
VERTEX
  8
DETAIL
  6
CONTINUOUS
 62
     5
 10
413.12207970336362
 20
-169.74050880140189
 30
0.0
  0
VERTEX
  8
DETAIL
  6
CONTINUOUS
 62
     5
 10
413.26058361859731
 20
-170.24152501919585
 30
0.0
  0
VERTEX
  8
DETAIL
  6
CONTINUOUS
 62
     5
 10
413.48116063859607
 20
-170.71255679472151
 30
0.0
  0
VERTEX
  8
DETAIL
  6
CONTINUOUS
 62
     5
 10
413.77210221519232
 20
-171.14319613836423
 30
0.0
  0
VERTEX
  8
DETAIL
  6
CONTINUOUS
 62
     5
 10
414.12062591472608
 20
-171.52857373237501
 30
0.0
  0
VERTEX
  8
DETAIL
  6
CONTINUOUS
 62
     5
 10
414.51535114500587
 20
-171.86635519123874
 30
0.0
  0
VERTEX
  8
DETAIL
  6
CONTINUOUS
 62
     5
 10
414.94640121112639
 20
-172.1562740551046
 30
0.0
  0
VERTEX
  8
DETAIL
  6
CONTINUOUS
 62
     5
 10
415.40560483151324
 20
-172.39886405938594
 30
0.0
  0
VERTEX
  8
DETAIL
  6
CONTINUOUS
 62
     5
 10
415.8863025545345
 20
-172.59530081074152
 30
0.0
  0
VERTEX
  8
DETAIL
  6
CONTINUOUS
 62
     5
 10
416.38292125668403
 20
-172.74669404839054
 30
0.0
  0
VERTEX
  8
DETAIL
  6
CONTINUOUS
 62
     5
 10
416.89108785880705
 20
-172.85404899176291
 30
0.0
  0
VERTEX
  8
DETAIL
  6
CONTINUOUS
 62
     5
 10
417.40652315688658
 20
-172.91816609465741
 30
0.0
  0
VERTEX
  8
DETAIL
  6
CONTINUOUS
 62
     5
 10
417.92500000000013
 20
-172.93945698879989
 30
0.0
  0
SEQEND
  8
DETAIL
  6
CONTINUOUS
 62
     5
  0
LINE
  8
BASIS
  6
CENTER
 62
     6
 10
417.92500000000013
 20
-163.66294217341331
 30
0.0
 11
417.92500000000013
 21
-188.39999999999961
 31
0.0
  0
LINE
  8
BASIS
  6
CENTER
 62
     6
 10
417.92500000000013
 20
-122.2168368902648
 30
0.0
 11
417.92499999999973
 21
-154.90000000000049
 31
0.0
  0
LINE
  8
BASIS
  6
CENTER
 62
     6
 10
406.44946063523588
 20
-130.3568974193808
 30
0.0
 11
430.12412575566748
 21
-130.3568974193808
 31
0.0
  0
LINE
  8
BASIS
  6
CENTER
 62
     6
 10
409.53907235566658
 20
-169.2241414397003
 30
0.0
 11
426.66123960618359
 21
-169.2241414397003
 31
0.0
  0
LINE
  8
OUTLINE
  6
CONTINUOUS
 62
     3
 10
-411.57300571840091
 20
-137.11899151691571
 30
0.0
 11
-411.57300571840091
 21
-56.781008472725709
 31
0.0
  0
LINE
  8
OUTLINE
  6
CONTINUOUS
 62
     3
 10
-411.57300571840091
 20
-56.781008472725709
 30
0.0
 11
-411.56674113939971
 21
-56.723194224999141
 31
0.0
  0
LINE
  8
OUTLINE
  6
CONTINUOUS
 62
     3
 10
-411.56674100810039
 20
-137.17680629850111
 30
0.0
 11
-411.57300571840091
 21
-137.11899151691571
 31
0.0
  0
LINE
  8
OUTLINE
  6
CONTINUOUS
 62
     3
 10
-401.97499999999991
 20
-49.476528713999869
 30
0.0
 11
-401.97499999999991
 21
-51.950000000000728
 31
0.0
  0
LINE
  8
OUTLINE
  6
CONTINUOUS
 62
     3
 10
-401.97499999999991
 20
-141.94999999999979
 30
0.0
 11
-401.97499999999991
 21
-144.4234712859006
 31
0.0
  0
LINE
  8
OUTLINE
  6
CONTINUOUS
 62
     3
 10
-399.97499999999951
 20
-45.499999999999993
 30
0.0
 11
-399.97499999999951
 21
-48.450000000000728
 31
0.0
  0
LINE
  8
OUTLINE
  6
CONTINUOUS
 62
     3
 10
-399.97499999999951
 20
-298.15683218380042
 30
0.0
 11
-399.97499999999951
 21
-300.40000000000049
 31
0.0
  0
LINE
  8
OUTLINE
  6
CONTINUOUS
 62
     3
 10
-399.97499999999951
 20
-300.39991866560098
 30
0.0
 11
-399.97499999999991
 21
-145.45000000000161
 31
0.0
  0
LINE
  8
OUTLINE
  6
CONTINUOUS
 62
     3
 10
-371.46139840810059
 20
-330.41745307100058
 30
0.0
 11
-371.54881939660072
 21
-320.40000000000049
 31
0.0
  0
LINE
  8
OUTLINE
  6
CONTINUOUS
 62
     3
 10
-336.27500000000049
 20
-10.000000000000909
 30
0.0
 11
-336.27500000000049
 21
-30.5
 31
0.0
  0
LINE
  8
OUTLINE
  6
CONTINUOUS
 62
     3
 10
-336.27500000000049
 20
-332.39999999999958
 30
0.0
 11
-336.27500000000049
 21
-341.60000000000042
 31
0.0
  0
LINE
  8
OUTLINE
  6
CONTINUOUS
 62
     3
 10
-326.27500000000049
 20
-349.79999999999973
 30
0.0
 11
-326.27500000000049
 21
-351.5997481355007
 31
0.0
  0
LINE
  8
OUTLINE
  6
CONTINUOUS
 62
     3
 10
-326.27500000000049
 20
-1.8000000000010909
 30
0.0
 11
-326.27500000000049
 21
-0.0002518643996154
 31
0.0
  0
LINE
  8
OUTLINE
  6
CONTINUOUS
 62
     3
 10
-316.97499999999991
 20
-4.8000000000010914
 30
0.0
 11
-316.97499999999991
 21
-24.300000000001091
 31
0.0
  0
LINE
  8
OUTLINE
  6
CONTINUOUS
 62
     3
 10
-304.97499999999951
 20
-24.300000000001091
 30
0.0
 11
-304.97499999999951
 21
-4.8000000000010914
 31
0.0
  0
LINE
  8
OUTLINE
  6
CONTINUOUS
 62
     3
 10
-295.67499999999882
 20
-349.79999999999973
 30
0.0
 11
-295.67499999999882
 21
-351.5997481355007
 31
0.0
  0
LINE
  8
OUTLINE
  6
CONTINUOUS
 62
     3
 10
-295.67499999999882
 20
-1.8000000000010909
 30
0.0
 11
-295.67499999999882
 21
-0.0002518643996154
 31
0.0
  0
LINE
  8
OUTLINE
  6
CONTINUOUS
 62
     3
 10
-285.67499999999882
 20
-341.60000000000042
 30
0.0
 11
-285.67499999999882
 21
-332.39999999999958
 31
0.0
  0
LINE
  8
OUTLINE
  6
CONTINUOUS
 62
     3
 10
-285.67499999999882
 20
-30.5
 30
0.0
 11
-285.67499999999882
 21
-10.000000000000909
 31
0.0
  0
LINE
  8
OUTLINE
  6
CONTINUOUS
 62
     3
 10
400.02500000000049
 20
-242.6999999999789
 30
0.0
 11
459.50160682421659
 21
-226.76329123282451
 31
0.0
  0
LINE
  8
OUTLINE
  6
CONTINUOUS
 62
     3
 10
-326.27500000000049
 20
-349.79999999999973
 30
0.0
 11
-295.67499999999882
 21
-349.79999999999973
 31
0.0
  0
LINE
  8
OUTLINE
  6
CONTINUOUS
 62
     3
 10
183.7249999999994
 20
-349.79999999999973
 30
0.0
 11
214.32500000000121
 21
-349.79999999999973
 31
0.0
  0
LINE
  8
OUTLINE
  6
CONTINUOUS
 62
     3
 10
142.31147456190001
 20
-332.39999999999958
 30
0.0
 11
-48.775000003212419
 21
-332.39999999999918
 31
0.0
  0
LINE
  8
OUTLINE
  6
CONTINUOUS
 62
     3
 10
-336.27500000000009
 20
-332.39999999999958
 30
0.0
 11
-369.46147456199918
 21
-332.39999999999958
 31
0.0
  0
LINE
  8
OUTLINE
  6
CONTINUOUS
 62
     3
 10
173.7249999999994
 20
-320.400000000001
 30
0.0
 11
144.39881939659921
 21
-320.400000000001
 31
0.0
  0
LINE
  8
OUTLINE
  6
CONTINUOUS
 62
     3
 10
-379.97499999999951
 20
-320.40000000000049
 30
0.0
 11
-371.54881939660032
 21
-320.40000000000049
 31
0.0
  0
LINE
  8
OUTLINE
  6
CONTINUOUS
 62
     3
 10
224.32500000000121
 20
-320.40000000000049
 30
0.0
 11
380.02500000000049
 21
-320.40000000000049
 31
0.0
  0
LINE
  8
OUTLINE
  6
CONTINUOUS
 62
     3
 10
-406.54182432849888
 20
-141.82304620919959
 30
0.0
 11
-406.50215586500047
 21
-141.82608984230041
 31
0.0
  0
LINE
  8
OUTLINE
  6
CONTINUOUS
 62
     3
 10
-399.97499999999951
 20
-145.45000000000161
 30
0.0
 11
-401.00117694830033
 21
-145.42312861090161
 31
0.0
  0
LINE
  8
OUTLINE
  6
CONTINUOUS
 62
     3
 10
-401.97499999999991
 20
-141.94999999999979
 30
0.0
 11
-406.27142080009878
 21
-141.83749426190019
 31
0.0
  0
LINE
  8
OUTLINE
  6
CONTINUOUS
 62
     3
 10
-406.32186904269918
 20
-141.83591717959911
 30
0.0
 11
-406.27141644979918
 21
-141.83749437570069
 31
0.0
  0
LINE
  8
OUTLINE
  6
CONTINUOUS
 62
     3
 10
-406.50215586500047
 20
-141.82608984230041
 30
0.0
 11
-406.32186904269918
 21
-141.83591717959911
 31
0.0
  0
LINE
  8
OUTLINE
  6
CONTINUOUS
 62
     3
 10
144.31139840809919
 20
-330.41745307100058
 30
0.0
 11
144.39881939659921
 21
-320.40000000000049
 31
0.0
  0
LINE
  8
OUTLINE
  6
CONTINUOUS
 62
     3
 10
173.7249999999994
 20
-10.000000000000909
 30
0.0
 11
173.7249999999994
 21
-30.5
 31
0.0
  0
LINE
  8
OUTLINE
  6
CONTINUOUS
 62
     3
 10
173.7249999999994
 20
-320.40000000000049
 30
0.0
 11
173.7249999999994
 21
-341.60000000000042
 31
0.0
  0
LINE
  8
OUTLINE
  6
CONTINUOUS
 62
     3
 10
183.7249999999994
 20
-349.79999999999973
 30
0.0
 11
183.7249999999994
 21
-351.5997481355007
 31
0.0
  0
LINE
  8
OUTLINE
  6
CONTINUOUS
 62
     3
 10
183.7249999999994
 20
-1.8000000000010909
 30
0.0
 11
183.7249999999994
 21
-0.0002518643996154
 31
0.0
  0
LINE
  8
OUTLINE
  6
CONTINUOUS
 62
     3
 10
-406.50215586500047
 20
-52.07391015759913
 30
0.0
 11
-406.54182432849888
 21
-52.076953790699918
 31
0.0
  0
LINE
  8
OUTLINE
  6
CONTINUOUS
 62
     3
 10
-406.27142080009878
 20
-52.062505738100299
 30
0.0
 11
-401.97499999999991
 21
-51.949999999999818
 31
0.0
  0
LINE
  8
OUTLINE
  6
CONTINUOUS
 62
     3
 10
-401.00117694830033
 20
-48.476871389000742
 30
0.0
 11
-399.97499999999951
 21
-48.450000000000728
 31
0.0
  0
LINE
  8
OUTLINE
  6
CONTINUOUS
 62
     3
 10
-382.49587455329902
 20
-30.5
 30
0.0
 11
-384.9749999999994
 21
-30.5
 31
0.0
  0
LINE
  8
OUTLINE
  6
CONTINUOUS
 62
     3
 10
370.02500000000049
 20
-30.500000000000909
 30
0.0
 11
385.0250000000006
 21
-30.5
 31
0.0
  0
LINE
  8
OUTLINE
  6
CONTINUOUS
 62
     3
 10
-384.97492272819949
 20
-30.5
 30
0.0
 11
-336.27500000000049
 21
-30.5
 31
0.0
  0
LINE
  8
OUTLINE
  6
CONTINUOUS
 62
     3
 10
-285.67499999999927
 20
-30.499999999999542
 30
0.0
 11
173.7249999999994
 21
-30.499999999999542
 31
0.0
  0
LINE
  8
OUTLINE
  6
CONTINUOUS
 62
     3
 10
224.3250000000007
 20
-30.499999999999091
 30
0.0
 11
340.02500000000049
 21
-30.499999999999542
 31
0.0
  0
LINE
  8
OUTLINE
  6
CONTINUOUS
 62
     3
 10
448.92499999999927
 20
-109.8223893566574
 30
0.0
 11
457.5545251097646
 21
-111.3440074642117
 31
0.0
  0
LINE
  8
OUTLINE
  6
CONTINUOUS
 62
     3
 10
448.51182408880049
 20
-99.801907138799834
 30
0.0
 11
400.02500000000049
 21
-91.252371843100264
 31
0.0
  0
LINE
  8
OUTLINE
  6
CONTINUOUS
 62
     3
 10
193.02500000000009
 20
-4.8000000000010914
 30
0.0
 11
193.02500000000009
 21
-24.300000000001091
 31
0.0
  0
LINE
  8
OUTLINE
  6
CONTINUOUS
 62
     3
 10
205.02500000000049
 20
-24.300000000001091
 30
0.0
 11
205.02500000000049
 21
-4.8000000000010914
 31
0.0
  0
LINE
  8
OUTLINE
  6
CONTINUOUS
 62
     3
 10
214.32500000000121
 20
-349.79999999999973
 30
0.0
 11
214.32500000000121
 21
-351.5997481355007
 31
0.0
  0
LINE
  8
OUTLINE
  6
CONTINUOUS
 62
     3
 10
214.32500000000121
 20
-1.8000000000010909
 30
0.0
 11
214.32500000000121
 21
-0.0002518643996154
 31
0.0
  0
LINE
  8
OUTLINE
  6
CONTINUOUS
 62
     3
 10
-326.27500000000049
 20
-1.8000000000010909
 30
0.0
 11
-319.9749999999994
 21
-1.8000000000010909
 31
0.0
  0
LINE
  8
OUTLINE
  6
CONTINUOUS
 62
     3
 10
-301.97499999999991
 20
-1.8000000000010909
 30
0.0
 11
-295.67499999999882
 21
-1.8000000000010909
 31
0.0
  0
LINE
  8
OUTLINE
  6
CONTINUOUS
 62
     3
 10
183.7249999999994
 20
-1.8000000000010909
 30
0.0
 11
190.02500000000049
 21
-1.8000000000010909
 31
0.0
  0
LINE
  8
OUTLINE
  6
CONTINUOUS
 62
     3
 10
208.02500000000009
 20
-1.8000000000010909
 30
0.0
 11
214.32500000000121
 21
-1.8000000000010909
 31
0.0
  0
LINE
  8
OUTLINE
  6
CONTINUOUS
 62
     3
 10
224.32500000000121
 20
-341.60000000000042
 30
0.0
 11
224.32500000000121
 21
-320.400000000001
 31
0.0
  0
LINE
  8
OUTLINE
  6
CONTINUOUS
 62
     3
 10
224.32500000000121
 20
-30.5
 30
0.0
 11
224.32500000000121
 21
-10.000000000000909
 31
0.0
  0
LINE
  8
OUTLINE
  6
CONTINUOUS
 62
     3
 10
340.02500000000049
 20
-30.5
 30
0.0
 11
340.02500000000049
 21
-22.500000000000909
 31
0.0
  0
LINE
  8
OUTLINE
  6
CONTINUOUS
 62
     3
 10
370.02500000000049
 20
-30.5
 30
0.0
 11
370.02500000000049
 21
-22.500000000000909
 31
0.0
  0
LINE
  8
OUTLINE
  6
CONTINUOUS
 62
     3
 10
400.02500000000049
 20
-45.500077271800357
 30
0.0
 11
400.02500000000049
 21
-91.252371843100264
 31
0.0
  0
LINE
  8
OUTLINE
  6
CONTINUOUS
 62
     3
 10
400.02500000000049
 20
-242.6999999999789
 30
0.0
 11
400.02500000000049
 21
-300.39991561569968
 31
0.0
  0
LINE
  8
OUTLINE
  6
CONTINUOUS
 62
     3
 10
448.92499999999927
 20
-100.29431101530101
 30
0.0
 11
448.92499999999927
 21
-109.8223893566574
 31
0.0
  0
ARC
  8
OUTLINE
  6
CONTINUOUS
 62
     3
 10
355.02500000000049
 20
-22.500000000000909
 30
0.0
 40
15.0
 50
0.0
 51
180.0
  0
ARC
  8
OUTLINE
  6
CONTINUOUS
 62
     3
 10
183.7249999999994
 20
-341.60000000000042
 30
0.0
 40
10.0
 50
180.0
 51
270.0
  0
ARC
  8
OUTLINE
  6
CONTINUOUS
 62
     3
 10
214.32500000000121
 20
-341.60000000000042
 30
0.0
 40
10.0
 50
270.0
 51
0.0
  0
ARC
  8
OUTLINE
  6
CONTINUOUS
 62
     3
 10
214.32500000000121
 20
-10.000000000000909
 30
0.0
 40
10.0
 50
0.0
 51
90.0
  0
ARC
  8
OUTLINE
  6
CONTINUOUS
 62
     3
 10
183.7249999999994
 20
-10.000000000000909
 30
0.0
 40
10.0
 50
90.0
 51
180.0
  0
ARC
  8
OUTLINE
  6
CONTINUOUS
 62
     3
 10
199.02499999999921
 20
-24.300000000001091
 30
0.0
 40
6.0
 50
180.0
 51
0.0
  0
ARC
  8
OUTLINE
  6
CONTINUOUS
 62
     3
 10
208.02500000000009
 20
-4.8000000000010914
 30
0.0
 40
3.0
 50
90.0
 51
180.0
  0
ARC
  8
OUTLINE
  6
CONTINUOUS
 62
     3
 10
190.02500000000049
 20
-4.8000000000010914
 30
0.0
 40
3.0
 50
0.0
 51
90.0
  0
ARC
  8
OUTLINE
  6
CONTINUOUS
 62
     3
 10
-326.27500000000049
 20
-341.60000000000042
 30
0.0
 40
10.0
 50
180.0
 51
270.0
  0
ARC
  8
OUTLINE
  6
CONTINUOUS
 62
     3
 10
-295.67499999999882
 20
-341.60000000000042
 30
0.0
 40
10.0
 50
270.0
 51
0.0
  0
ARC
  8
OUTLINE
  6
CONTINUOUS
 62
     3
 10
-295.67499999999882
 20
-10.000000000000909
 30
0.0
 40
10.0
 50
0.0
 51
90.0
  0
ARC
  8
OUTLINE
  6
CONTINUOUS
 62
     3
 10
-326.27500000000049
 20
-10.000000000000909
 30
0.0
 40
10.0
 50
90.0
 51
180.0
  0
ARC
  8
OUTLINE
  6
CONTINUOUS
 62
     3
 10
-310.97500000000082
 20
-24.300000000001091
 30
0.0
 40
6.0
 50
180.0
 51
0.0
  0
ARC
  8
OUTLINE
  6
CONTINUOUS
 62
     3
 10
-301.97499999999991
 20
-4.8000000000010914
 30
0.0
 40
3.0
 50
90.0
 51
180.0
  0
ARC
  8
OUTLINE
  6
CONTINUOUS
 62
     3
 10
-319.9749999999994
 20
-4.8000000000010914
 30
0.0
 40
3.0
 50
0.0
 51
90.0
  0
ARC
  8
OUTLINE
  6
CONTINUOUS
 62
     3
 10
-400.97500000000082
 20
-49.476528713999869
 30
0.0
 40
1.0
 50
91.500000000041908
 51
180.0
  0
ARC
  8
OUTLINE
  6
CONTINUOUS
 62
     3
 10
-400.97500000000082
 20
-144.4234712859006
 30
0.0
 40
1.0
 50
180.0
 51
268.49999999995811
  0
ARC
  8
OUTLINE
  6
CONTINUOUS
 62
     3
 10
-113.5750000000007
 20
1766.6200000000999
 30
0.0
 40
2100.02
 50
268.23175210381629
 51
271.76824789618371
  0
ARC
  8
OUTLINE
  6
CONTINUOUS
 62
     3
 10
-369.46147456199918
 20
-330.4000000000006
 30
0.0
 40
2.0
 50
180.49999999996541
 51
270.0
  0
ARC
  8
OUTLINE
  6
CONTINUOUS
 62
     3
 10
142.31147456190001
 20
-330.4000000000006
 30
0.0
 40
2.0
 50
270.0
 51
359.50000000003467
  0
ARC
  8
OUTLINE
  6
CONTINUOUS
 62
     3
 10
211.02499999999961
 20
-171.94999999999979
 30
0.0
 40
260.0
 50
349.59435020746571
 51
11.71429850880131
  0
ARC
  8
OUTLINE
  6
CONTINUOUS
 62
     3
 10
456.9134163731996
 20
-217.10403297000181
 30
0.0
 40
10.0
 50
284.99999999999437
 51
349.59435020738408
  0
ARC
  8
OUTLINE
  6
CONTINUOUS
 62
     3
 10
455.81804333309952
 20
-121.1920849943008
 30
0.0
 40
10.0
 50
11.71429850880131
 51
79.99999999999612
  0
ARC
  8
OUTLINE
  6
CONTINUOUS
 62
     3
 10
448.42499660410112
 20
-100.29431041650059
 30
0.0
 40
0.5
 50
359.99993138406609
 51
79.999604854224884
  0
ARC
  8
OUTLINE
  6
CONTINUOUS
 62
     3
 10
-384.9749999999994
 20
-45.499999999999993
 30
0.0
 40
15.0
 50
90.0
 51
180.0
  0
ARC
  8
OUTLINE
  6
CONTINUOUS
 62
     3
 10
380.02500000000049
 20
-300.40000000000049
 30
0.0
 40
20.0
 50
269.99976699415578
 51
0.0002417431627196
  0
ARC
  8
OUTLINE
  6
CONTINUOUS
 62
     3
 10
-379.97499999999951
 20
-300.40000000000049
 30
0.0
 40
20.0
 50
179.99976699407759
 51
270.00024174316269
  0
ARC
  8
OUTLINE
  6
CONTINUOUS
 62
     3
 10
385.0250000000006
 20
-45.499999999999993
 30
0.0
 40
15.0
 50
359.9997048434052
 51
90.000306685248759
  0
CIRCLE
  8
ARRANGE
  6
CONTINUOUS
 62
     1
 10
0.0
 20
0.0
 30
0.0
 40
15.0
  0
LINE
  8
BASIS
  6
CENTER
 62
     6
 10
0.0
 20
0.0
 30
0.0
 11
0.0
 21
-352.9237060546875
 31
0.0
  0
CIRCLE
  8
FIX
  6
CONTINUOUS
 62
    11
 10
199.02499999999921
 20
-24.300000000001091
 30
0.0
 40
3.0
  0
CIRCLE
  8
FIX
  6
CONTINUOUS
 62
    11
 10
-310.97500000000082
 20
-24.300000000001091
 30
0.0
 40
3.0
  0
CIRCLE
  8
FIX
  6
CONTINUOUS
 62
    11
 10
-310.97500000000082
 20
-336.80000000000018
 30
0.0
 40
3.0
  0
CIRCLE
  8
FIX
  6
CONTINUOUS
 62
    11
 10
199.02499999999921
 20
-336.80000000000018
 30
0.0
 40
3.0
  0
CIRCLE
  8
DETAIL
  6
CONTINUOUS
 62
     5
 10
-361.3750000000004
 20
-121.10000000000031
 30
0.0
 40
10.0
  0
CIRCLE
  8
DETAIL
  6
CONTINUOUS
 62
     5
 10
120.6249999999995
 20
-66.100000000000364
 30
0.0
 40
10.0
  0
CIRCLE
  8
DETAIL
  6
CONTINUOUS
 62
     5
 10
281.6249999999996
 20
-66.100000000000364
 30
0.0
 40
10.0
  0
LINE
  8
OUTLINE
  6
CONTINUOUS
 62
     3
 10
-178.3749999967888
 20
-332.39999999999918
 30
0.0
 11
-285.67499999999831
 21
-332.39999999999958
 31
0.0
  0
LINE
  8
DETAIL
  6
CONTINUOUS
 62
     5
 10
-411.56677828550067
 20
-137.1771809809006
 30
0.0
 11
-411.42379735809982
 21
-137.67621677189979
 31
0.0
  0
LINE
  8
DETAIL
  6
CONTINUOUS
 62
     5
 10
-411.42379735809982
 20
-137.67621677189979
 30
0.0
 11
-410.96797601660001
 21
-138.74866540599939
 31
0.0
  0
LINE
  8
DETAIL
  6
CONTINUOUS
 62
     5
 10
-410.96797601660001
 20
-138.74866540599939
 30
0.0
 11
-410.32795221510008
 21
-139.72719635920021
 31
0.0
  0
LINE
  8
DETAIL
  6
CONTINUOUS
 62
     5
 10
-410.32795221510008
 20
-139.72719635920021
 30
0.0
 11
-409.52097507859878
 21
-140.5629475829009
 31
0.0
  0
LINE
  8
DETAIL
  6
CONTINUOUS
 62
     5
 10
-409.52097507859878
 20
-140.5629475829009
 30
0.0
 11
-408.57240914059952
 21
-141.2142916390994
 31
0.0
  0
LINE
  8
DETAIL
  6
CONTINUOUS
 62
     5
 10
-408.57240914059952
 20
-141.2142916390994
 30
0.0
 11
-407.51884786300019
 21
-141.64546088419951
 31
0.0
  0
LINE
  8
DETAIL
  6
CONTINUOUS
 62
     5
 10
-407.51884786300019
 20
-141.64546088419951
 30
0.0
 11
-406.54190847039888
 21
-141.82303938130011
 31
0.0
  0
LINE
  8
DETAIL
  6
CONTINUOUS
 62
     5
 10
-406.27141644979918
 20
-52.06250562419973
 30
0.0
 11
-406.32186904269918
 21
-52.064082820400472
 31
0.0
  0
LINE
  8
DETAIL
  6
CONTINUOUS
 62
     5
 10
-406.32186904269918
 20
-52.064082820400472
 30
0.0
 11
-406.50215586500047
 21
-52.07391015759913
 31
0.0
  0
LINE
  8
DETAIL
  6
CONTINUOUS
 62
     5
 10
-406.54190895070082
 20
-52.076960657601383
 30
0.0
 11
-407.51826934910008
 21
-52.25437387510101
 31
0.0
  0
LINE
  8
DETAIL
  6
CONTINUOUS
 62
     5
 10
-407.51826934910008
 20
-52.25437387510101
 30
0.0
 11
-408.57260805019899
 21
-52.685816188601173
 31
0.0
  0
LINE
  8
DETAIL
  6
CONTINUOUS
 62
     5
 10
-408.57260805019899
 20
-52.685816188601173
 30
0.0
 11
-409.52152630740102
 21
-53.337520827700253
 31
0.0
  0
LINE
  8
DETAIL
  6
CONTINUOUS
 62
     5
 10
-409.52152630740102
 20
-53.337520827700253
 30
0.0
 11
-410.32827073469889
 21
-54.173204356200593
 31
0.0
  0
LINE
  8
DETAIL
  6
CONTINUOUS
 62
     5
 10
-410.32827073469889
 20
-54.173204356200593
 30
0.0
 11
-410.96797369930061
 21
-55.151330236500137
 31
0.0
  0
LINE
  8
DETAIL
  6
CONTINUOUS
 62
     5
 10
-410.96797369930061
 20
-55.151330236500137
 30
0.0
 11
-411.42368746010101
 21
-56.223447566600044
 31
0.0
  0
LINE
  8
DETAIL
  6
CONTINUOUS
 62
     5
 10
-411.42368746010101
 20
-56.223447566600044
 30
0.0
 11
-411.56677841589948
 21
-56.722819547700063
 31
0.0
  0
LINE
  8
OUTLINE
  6
CONTINUOUS
 62
     3
 10
-411.56677828550067
 20
-137.1771809809006
 30
0.0
 11
-411.42379735809982
 21
-137.67621677189979
 31
0.0
  0
LINE
  8
OUTLINE
  6
CONTINUOUS
 62
     3
 10
-411.42379735809982
 20
-137.67621677189979
 30
0.0
 11
-410.96797601660001
 21
-138.74866540599939
 31
0.0
  0
LINE
  8
OUTLINE
  6
CONTINUOUS
 62
     3
 10
-410.96797601660001
 20
-138.74866540599939
 30
0.0
 11
-410.32795221510008
 21
-139.72719635920021
 31
0.0
  0
LINE
  8
OUTLINE
  6
CONTINUOUS
 62
     3
 10
-410.32795221510008
 20
-139.72719635920021
 30
0.0
 11
-409.52097507859878
 21
-140.5629475829009
 31
0.0
  0
LINE
  8
OUTLINE
  6
CONTINUOUS
 62
     3
 10
-409.52097507859878
 20
-140.5629475829009
 30
0.0
 11
-408.57240914059952
 21
-141.2142916390994
 31
0.0
  0
LINE
  8
OUTLINE
  6
CONTINUOUS
 62
     3
 10
-408.57240914059952
 20
-141.2142916390994
 30
0.0
 11
-407.51884786300019
 21
-141.64546088419951
 31
0.0
  0
LINE
  8
OUTLINE
  6
CONTINUOUS
 62
     3
 10
-407.51884786300019
 20
-141.64546088419951
 30
0.0
 11
-406.54190847039888
 21
-141.82303938130011
 31
0.0
  0
LINE
  8
OUTLINE
  6
CONTINUOUS
 62
     3
 10
-406.27141644979918
 20
-52.06250562419973
 30
0.0
 11
-406.32186904269918
 21
-52.064082820400472
 31
0.0
  0
LINE
  8
OUTLINE
  6
CONTINUOUS
 62
     3
 10
-406.32186904269918
 20
-52.064082820400472
 30
0.0
 11
-406.50215586500047
 21
-52.07391015759913
 31
0.0
  0
LINE
  8
OUTLINE
  6
CONTINUOUS
 62
     3
 10
-406.54190895070082
 20
-52.076960657601383
 30
0.0
 11
-407.51826934910008
 21
-52.25437387510101
 31
0.0
  0
LINE
  8
OUTLINE
  6
CONTINUOUS
 62
     3
 10
-407.51826934910008
 20
-52.25437387510101
 30
0.0
 11
-408.57260805019899
 21
-52.685816188601173
 31
0.0
  0
LINE
  8
OUTLINE
  6
CONTINUOUS
 62
     3
 10
-408.57260805019899
 20
-52.685816188601173
 30
0.0
 11
-409.52152630740102
 21
-53.337520827700253
 31
0.0
  0
LINE
  8
OUTLINE
  6
CONTINUOUS
 62
     3
 10
-409.52152630740102
 20
-53.337520827700253
 30
0.0
 11
-410.32827073469889
 21
-54.173204356200593
 31
0.0
  0
LINE
  8
OUTLINE
  6
CONTINUOUS
 62
     3
 10
-410.32827073469889
 20
-54.173204356200593
 30
0.0
 11
-410.96797369930061
 21
-55.151330236500137
 31
0.0
  0
LINE
  8
OUTLINE
  6
CONTINUOUS
 62
     3
 10
-410.96797369930061
 20
-55.151330236500137
 30
0.0
 11
-411.42368746010101
 21
-56.223447566600044
 31
0.0
  0
LINE
  8
OUTLINE
  6
CONTINUOUS
 62
     3
 10
-411.42368746010101
 20
-56.223447566600044
 30
0.0
 11
-411.56677841589948
 21
-56.722819547700063
 31
0.0
  0
ENDSEC
  0
EOF
