  0
SECTION
  2
HEADER
  9
$ACADVER
  1
AC1009
  9
$DWGCODEPAGE
  3
dos932
  9
$INSBASE
 10
0.0
 20
0.0
 30
0.0
  9
$EXTMIN
 10
-650.03867941549288
 20
-15.12630841911232
 30
-0.0000000000112498
  9
$EXTMAX
 10
475.35960541657732
 20
1200.1099094158201
 30
0.0000000000002956
  9
$LIMMIN
 10
0.0000014455781638
 20
-0.0000031812703583
  9
$LIMMAX
 10
5940.0000014455791
 20
4199.9999968187294
  9
$ORTHOMODE
 70
     0
  9
$REGENMODE
 70
     1
  9
$FILLMODE
 70
     1
  9
$QTEXTMODE
 70
     0
  9
$MIRRTEXT
 70
     1
  9
$LTSCALE
 40
10.0
  9
$ATTMODE
 70
     1
  9
$TEXTSIZE
 40
2.5
  9
$TRACEWID
 40
1.0
  9
$TEXTSTYLE
  7
STYLE1
  9
$CLAYER
  8
SIZE
  9
$CELTYPE
  6
ByLayer
  9
$CECOLOR
 62
    30
  9
$DIMSCALE
 40
10.0
  9
$DIMASZ
 40
1.0
  9
$DIMEXO
 40
0.0
  9
$DIMDLI
 40
12.0
  9
$DIMRND
 40
0.0
  9
$DIMDLE
 40
0.0
  9
$DIMEXE
 40
2.0
  9
$DIMTP
 40
0.1
  9
$DIMTM
 40
0.1
  9
$DIMTXT
 40
4.0
  9
$DIMCEN
 40
0.0
  9
$DIMTSZ
 40
0.0
  9
$DIMTOL
 70
     0
  9
$DIMLIM
 70
     0
  9
$DIMTIH
 70
     0
  9
$DIMTOH
 70
     0
  9
$DIMSE1
 70
     0
  9
$DIMSE2
 70
     0
  9
$DIMTAD
 70
     3
  9
$DIMZIN
 70
     8
  9
$DIMBLK
  1

  9
$DIMASO
 70
     1
  9
$DIMSHO
 70
     1
  9
$DIMPOST
  1

  9
$DIMAPOST
  1
"
  9
$DIMALT
 70
     0
  9
$DIMALTD
 70
     2
  9
$DIMALTF
 40
0.0393701
  9
$DIMLFAC
 40
1.0
  9
$DIMTOFL
 70
     1
  9
$DIMTVP
 40
0.0
  9
$DIMTIX
 70
     0
  9
$DIMSOXD
 70
     0
  9
$DIMSAH
 70
     0
  9
$DIMBLK1
  1

  9
$DIMBLK2
  1

  9
$DIMSTYLE
  2
MHIJIS
  9
$DIMCLRD
 70
     3
  9
$DIMCLRE
 70
     3
  9
$DIMCLRT
 70
     3
  9
$DIMTFAC
 40
0.71
  9
$DIMGAP
 40
1.0
  9
$LUNITS
 70
     2
  9
$LUPREC
 70
     4
  9
$SKETCHINC
 40
1.0
  9
$FILLETRAD
 40
0.0
  9
$AUNITS
 70
     0
  9
$AUPREC
 70
     0
  9
$MENU
  1
.
  9
$ELEVATION
 40
0.0
  9
$PELEVATION
 40
0.0
  9
$THICKNESS
 40
0.0
  9
$LIMCHECK
 70
     0
  9
$CHAMFERA
 40
0.0
  9
$CHAMFERB
 40
0.0
  9
$SKPOLY
 70
     0
  9
$TDCREATE
 40
2454511.500316863
  9
$TDUPDATE
 40
2457701.648602697
  9
$TDINDWG
 40
0.2551600116
  9
$TDUSRTIMER
 40
0.2551600116
  9
$USRTIMER
 70
     1
  9
$ANGBASE
 50
0.0
  9
$ANGDIR
 70
     0
  9
$PDMODE
 70
     0
  9
$PDSIZE
 40
0.0
  9
$PLINEWID
 40
0.0
  9
$SPLFRAME
 70
     0
  9
$SPLINETYPE
 70
     6
  9
$SPLINESEGS
 70
     8
  9
$SURFTAB1
 70
     6
  9
$SURFTAB2
 70
     6
  9
$SURFTYPE
 70
     6
  9
$SURFU
 70
     6
  9
$SURFV
 70
     6
  9
$UCSNAME
  2

  9
$UCSORG
 10
0.0
 20
0.0
 30
0.0
  9
$UCSXDIR
 10
1.0
 20
0.0
 30
0.0
  9
$UCSYDIR
 10
0.0
 20
1.0
 30
0.0
  9
$PUCSNAME
  2

  9
$PUCSORG
 10
0.0
 20
0.0
 30
0.0
  9
$PUCSXDIR
 10
1.0
 20
0.0
 30
0.0
  9
$PUCSYDIR
 10
0.0
 20
1.0
 30
0.0
  9
$USERI1
 70
     0
  9
$USERI2
 70
     0
  9
$USERI3
 70
     0
  9
$USERI4
 70
     0
  9
$USERI5
 70
     0
  9
$USERR1
 40
0.0
  9
$USERR2
 40
0.0
  9
$USERR3
 40
0.0
  9
$USERR4
 40
0.0
  9
$USERR5
 40
0.0
  9
$WORLDVIEW
 70
     1
  9
$SHADEDGE
 70
     3
  9
$SHADEDIF
 70
    70
  9
$TILEMODE
 70
     1
  9
$MAXACTVP
 70
    64
  9
$PINSBASE
 10
0.0
 20
0.0
 30
0.0
  9
$PLIMCHECK
 70
     0
  9
$PEXTMIN
 10
0.0
 20
0.0
 30
0.0
  9
$PEXTMAX
 10
0.0
 20
0.0
 30
0.0
  9
$PLIMMIN
 10
0.0
 20
0.0
  9
$PLIMMAX
 10
12.0
 20
9.0
  9
$UNITMODE
 70
     0
  9
$VISRETAIN
 70
     1
  9
$PLINEGEN
 70
     0
  9
$PSLTSCALE
 70
     1
  9
$TREEDEPTH
 70
  3020
  9
$ATTDIA
 70
     0
  9
$ATTREQ
 70
     1
  9
$BLIPMODE
 70
     1
  9
$COORDS
 70
     1
  9
$DRAGMODE
 70
     2
  9
$OSMODE
 70
     0
  9
$HANDLING
 70
     0
  9
$HANDSEED
  5
2C31
  0
ENDSEC
  0
SECTION
  2
TABLES
  0
TABLE
  2
LTYPE
 70
     4
  0
LTYPE
  2
CONTINUOUS
 70
     0
  3
Solid line
 72
    65
 73
     0
 40
0.0
  0
LTYPE
  2
AM_ISO02W050
 70
     0
  3
__ __ __ __ __ __ __ __ __ __ __ __ __ __ __
 72
    65
 73
     2
 40
7.5
 49
6.0
 49
-1.5
  0
LTYPE
  2
AM_ISO08W050
 70
     0
  3
____ . ____ . ____ . ____ . ____ . ____ . ____
 72
    65
 73
     4
 40
18.0
 49
12.0
 49
-1.5
 49
3.0
 49
-1.5
  0
LTYPE
  2
CENTER
 70
     0
  3
__ . __
 72
    65
 73
     4
 40
7.0
 49
4.0
 49
-1.0
 49
1.0
 49
-1.0
  0
ENDTAB
  0
TABLE
  2
LAYER
 70
     7
  0
LAYER
  2
BASIS
 70
     0
 62
     6
  6
AM_ISO08W050
  0
LAYER
  2
DETAIL
 70
     0
 62
     5
  6
CONTINUOUS
  0
LAYER
  2
SERVICESPACE
 70
     0
 62
     2
  6
AM_ISO02W050
  0
LAYER
  2
ARRANGE
 70
     0
 62
     1
  6
CONTINUOUS
  0
LAYER
  2
OUTLINE
 70
     0
 62
     3
  6
CONTINUOUS
  0
LAYER
  2
FIX
 70
     0
 62
    11
  6
CONTINUOUS
  0
LAYER
  2
SIZE
 70
    64
 62
    30
  6
CONTINUOUS
  0
ENDTAB
  0
TABLE
  2
STYLE
 70
     2
  0
STYLE
  2
STANDARD
 70
     0
 40
0.0
 41
0.7
 50
0.0
 71
     0
 42
2.5
  3
simplex.shx
  4
bigfont.shx
  0
STYLE
  2
STYLE1
 70
     0
 40
0.0
 41
1.0
 50
0.0
 71
     0
 42
2.5
  3
monotxt.shx
  4
bigfont.shx
  0
ENDTAB
  0
TABLE
  2
APPID
 70
    50
  0
APPID
  2
ACAD
 70
     0
  0
APPID
  2
MCAD_NO_VIS
 70
     0
  0
APPID
  2
ACAD_TEMP_GRAPHIC
 70
     0
  0
APPID
  2
ACATTRIBSERVICES
 70
     0
  0
APPID
  2
AD_DRAW
 70
     0
  0
APPID
  2
DESIGNERASSEMBLIES
 70
     0
  0
APPID
  2
ACADM_DIM_EDIT
 70
     0
  0
APPID
  2
AMDT_DM_ADJ
 70
     0
  0
APPID
  2
RAK
 70
     0
  0
APPID
  2
ACAD_DSTYLE_DIMARC_LENGTH_SYMBO
 70
     0
  0
APPID
  2
ACAD_DSTYLE_DIMJOGGED_JOGANGLE_
 70
     0
  0
APPID
  2
GENIUS_GENTRA_14
 70
     0
  0
APPID
  2
GENIUS_GENOENT_13
 70
     0
  0
APPID
  2
GENIUS_GENOLIS_13
 70
     0
  0
APPID
  2
GENIUS_GENOBJ-N-TIT_13
 70
     0
  0
APPID
  2
GENIUS_GENODEF_13
 70
     0
  0
APPID
  2
GENIUS_GENTITLE_13
 70
     0
  0
APPID
  2
GENIUS_GENOREF_13
 70
     0
  0
APPID
  2
GENIUS_GENSCREG_15
 70
     0
  0
APPID
  2
GENIUS_GENOBJ-N-SDF_13
 70
     0
  0
APPID
  2
ACAECLAYERSTANDARD
 70
     0
  0
APPID
  2
ACAD_DSTYLE_DIMEXT_LENGTH
 70
     0
  0
APPID
  2
ACAD_DSTYLE_DIMEXT_ENABLED
 70
     0
  0
APPID
  2
ACAD_PSEXT
 70
     0
  0
APPID
  2
GENIUS_GENOBJ-N-CEN_13
 70
     0
  0
APPID
  2
DCO15
 70
     0
  0
APPID
  2
ACAD_NAV_VCDISPLAY
 70
     0
  0
APPID
  2
ACADANNOPO
 70
     0
  0
APPID
  2
ACADANNOTATIVE
 70
     0
  0
APPID
  2
ACAD_DSTYLE_DIMJAG
 70
     0
  0
APPID
  2
ACAD_DSTYLE_DIMTALN
 70
     0
  0
APPID
  2
ACAD_MLEADERVER
 70
     0
  0
APPID
  2
ACAD_DSTYLE_DIMBREAK
 70
     0
  0
APPID
  2
ACAD_EXEMPT_FROM_CAD_STANDARDS
 70
     0
  0
APPID
  2
GENIUS_GENREC_14
 70
     0
  0
APPID
  2
GENIUS_GENOBJ-N-REC_13
 70
     0
  0
APPID
  2
GENIUS_GENDIM_13
 70
     0
  0
APPID
  2
GENIUS_GENDTOL_13
 70
     0
  0
APPID
  2
GENIUS_GE3DTOL_13
 70
     0
  0
APPID
  2
ASURF_PCURVE_APPNAME
 70
     0
  0
APPID
  2
AMG_3D2D_5_0
 70
     0
  0
APPID
  2
GENIUS_GENOBJ-N-HTC_13
 70
     0
  0
APPID
  2
GENIUS_GENHATCH_13
 70
     0
  0
APPID
  2
GRADIENTCOLOR1ACI
 70
     0
  0
APPID
  2
GRADIENTCOLOR2ACI
 70
     0
  0
APPID
  2
ACADSTRINGINFO
 70
     0
  0
APPID
  2
ACCMTRANSPARENCY
 70
     0
  0
APPID
  2
ACAD_DSTYLE_DIM_LINETYPE
 70
     0
  0
APPID
  2
ACAD_DSTYLE_DIM_EXT1_LINETYPE
 70
     0
  0
APPID
  2
ACAD_DSTYLE_DIM_EXT2_LINETYPE
 70
     0
  0
ENDTAB
  0
TABLE
  2
DIMSTYLE
 70
     1
  0
DIMSTYLE
  2
MHIJIS
 70
     0
  3

  4
"
  5
_OPEN30
  6

  7

 40
1.0
 41
3.149999999999999
 42
0.0
 43
12.0
 44
2.0
 45
0.0
 46
0.0
 47
0.1
 48
0.1
140
4.0
141
0.0
142
0.0
143
0.0393701
144
1.0
145
0.0
146
0.71
147
1.0
 71
     0
 72
     0
 73
     0
 74
     0
 75
     0
 76
     0
 77
     3
 78
     8
170
     0
171
     2
172
     1
173
     0
174
     0
175
     0
176
     3
177
     3
178
     3
  0
ENDTAB
  0
TABLE
  2
VIEW
 70
     6
  0
VIEW
  2
AM_VIEW1
 70
     0
 40
2100.0
 10
1795.317920520723
 20
3149.9999968187299
 41
3590.6358381502891
 11
0.0
 21
0.0
 31
1.0
 12
0.0
 22
0.0
 32
0.0
 42
50.0
 43
0.0
 44
0.0
 50
0.0
 71
     0
  0
VIEW
  2
AM_VIEW2
 70
     0
 40
2100.0
 10
4144.6820823704329
 20
3149.9999968187299
 41
3590.6358381502891
 11
0.0
 21
0.0
 31
1.0
 12
0.0
 22
0.0
 32
0.0
 42
50.0
 43
0.0
 44
0.0
 50
0.0
 71
     0
  0
VIEW
  2
AM_VIEW3
 70
     0
 40
2100.0
 10
1795.317920520723
 20
1049.999996818729
 41
3590.6358381502891
 11
0.0
 21
0.0
 31
1.0
 12
0.0
 22
0.0
 32
0.0
 42
50.0
 43
0.0
 44
0.0
 50
0.0
 71
     0
  0
VIEW
  2
AM_VIEW4
 70
     0
 40
2100.0
 10
4144.6820823704329
 20
1049.999996818729
 41
3590.6358381502891
 11
0.0
 21
0.0
 31
1.0
 12
0.0
 22
0.0
 32
0.0
 42
50.0
 43
0.0
 44
0.0
 50
0.0
 71
     0
  0
VIEW
  2
AM_VIEW5
 70
     0
 40
2100.0
 10
2970.0000014455782
 20
2099.999996818729
 41
3590.6358381502891
 11
0.0
 21
0.0
 31
1.0
 12
0.0
 22
0.0
 32
0.0
 42
50.0
 43
0.0
 44
0.0
 50
0.0
 71
     0
  0
VIEW
  2
AM_VIEW6
 70
     0
 40
4199.9580000000014
 10
2970.0000014455782
 20
2099.999996818729
 41
7181.1998635838154
 11
0.0
 21
0.0
 31
1.0
 12
0.0
 22
0.0
 32
0.0
 42
50.0
 43
0.0
 44
0.0
 50
0.0
 71
     0
  0
ENDTAB
  0
TABLE
  2
UCS
 70
     0
  0
ENDTAB
  0
TABLE
  2
VPORT
 70
     1
  0
VPORT
  2
*ACTIVE
 70
     0
 10
0.0
 20
0.0
 11
1.0
 21
1.0
 12
-87.339536999457763
 22
592.49180049835365
 13
0.0
 23
0.0
 14
25.0
 24
25.0
 15
100.0
 25
100.0
 16
0.0
 26
0.0
 36
1.0
 17
0.0
 27
0.0
 37
0.0
 40
1226.1351973670839
 41
1.869760479041916
 42
50.0
 43
0.0
 44
0.0
 50
0.0
 51
0.0
 71
     0
 72
   100
 73
     1
 74
     3
 75
     0
 76
     0
 77
     0
 78
     0
  0
ENDTAB
  0
ENDSEC
  0
SECTION
  2
BLOCKS
  0
BLOCK
  8
SIZE
  2
_OPEN30
 70
     0
 10
0.0
 20
0.0
 30
0.0
  3
_OPEN30
  1
_Open30
  0
LINE
  8
SIZE
  6
ByBlock
 62
    30
 10
-1.0
 20
0.26794919
 30
0.0
 11
0.0
 21
0.0
 31
0.0
  0
LINE
  8
SIZE
  6
ByBlock
 62
    30
 10
0.0
 20
0.0
 30
0.0
 11
-1.0
 21
-0.26794919
 31
0.0
  0
LINE
  8
SIZE
  6
ByBlock
 62
    30
 10
0.0
 20
0.0
 30
0.0
 11
-1.0
 21
0.0
 31
0.0
  0
ENDBLK
  8
SIZE
  0
ENDSEC
  0
SECTION
  2
ENTITIES
  0
LINE
  8
DETAIL
  6
CONTINUOUS
 62
     5
 10
-471.0000000000008
 20
75.360176850999764
 30
0.0
 11
-471.0000000000008
 21
232.1484812961001
 31
0.0
  0
LINE
  8
DETAIL
  6
CONTINUOUS
 62
     5
 10
-368.35146893600268
 20
641.64852703379995
 30
0.0
 11
-369.82447394380239
 21
640.17552158139983
 31
0.0
  0
LINE
  8
DETAIL
  6
CONTINUOUS
 62
     5
 10
-381.82548339960249
 20
11.828427124700051
 30
0.0
 11
-379.52010101260112
 21
9.5230447378003191
 31
0.0
  0
LINE
  8
DETAIL
  6
CONTINUOUS
 62
     5
 10
-400.00000000000267
 20
579.90000000000032
 30
0.0
 11
-412.99999999010191
 21
572.39444650620021
 31
0.0
  0
LINE
  8
DETAIL
  6
CONTINUOUS
 62
     5
 10
-464.66500591550079
 20
66.072223235800024
 30
0.0
 11
-400.00000000000267
 21
40.600000000000591
 31
0.0
  0
LINE
  8
DETAIL
  6
CONTINUOUS
 62
     5
 10
-307.92548339960109
 20
11.828427124700051
 30
0.0
 11
-305.6201010126033
 21
9.5230447378003191
 31
0.0
  0
LINE
  8
DETAIL
  6
CONTINUOUS
 62
     5
 10
-415.00000000000267
 20
267.83593432739963
 30
0.0
 11
-414.9999999963029
 21
568.93034488761225
 31
0.0
  0
LINE
  8
DETAIL
  6
CONTINUOUS
 62
     5
 10
-400.00000000000267
 20
12.400000000000089
 30
0.0
 11
-400.00000000000267
 21
631.35430572810014
 31
0.0
  0
LINE
  8
SERVICESPACE
  6
AM_ISO02W050
 62
     2
 10
-650.00000000000273
 20
0.0
 30
0.0
 11
-650.00000000000273
 21
1200.0
 31
0.0
  0
LINE
  8
DETAIL
  6
CONTINUOUS
 62
     5
 10
243.4844591372985
 20
12.85438373939996
 30
0.0
 11
243.48404919459881
 21
12.854269935399991
 31
0.0
  0
LINE
  8
DETAIL
  6
CONTINUOUS
 62
     5
 10
-338.80000000000109
 20
47.999999999999538
 30
0.0
 11
-338.80000000000109
 21
593.50000000000023
 31
0.0
  0
LINE
  8
DETAIL
  6
CONTINUOUS
 62
     5
 10
-318.80000000000109
 20
593.50000000000023
 30
0.0
 11
-318.80000000000109
 21
47.999999999999538
 31
0.0
  0
LINE
  8
DETAIL
  6
CONTINUOUS
 62
     5
 10
228.5359080310991
 20
7.9979444524997234
 30
0.0
 11
72.866687867099245
 21
3.0053459866996941
 31
0.0
  0
LINE
  8
DETAIL
  6
CONTINUOUS
 62
     5
 10
-224.30000000000021
 20
0.0
 30
0.0
 11
-173.70000000000161
 21
0.0
 31
0.0
  0
LINE
  8
DETAIL
  6
CONTINUOUS
 62
     5
 10
285.69999999999709
 20
0.0
 30
0.0
 11
336.29999999999842
 21
0.0
 31
0.0
  0
LINE
  8
DETAIL
  6
CONTINUOUS
 62
     5
 10
72.866687867099245
 20
3.0000000000006821
 30
0.0
 11
72.533312132997693
 21
3.0000000000006821
 31
0.0
  0
LINE
  8
DETAIL
  6
CONTINUOUS
 62
     5
 10
72.533312132997693
 20
3.0053459866996941
 30
0.0
 11
72.866687867099245
 21
3.0053459866996941
 31
0.0
  0
LINE
  8
DETAIL
  6
CONTINUOUS
 62
     5
 10
377.74314575049812
 20
8.0000000000006821
 30
0.0
 11
329.82102355329789
 21
8.0000000000006821
 31
0.0
  0
LINE
  8
DETAIL
  6
CONTINUOUS
 62
     5
 10
292.17897644669853
 20
8.0000000000006821
 30
0.0
 11
228.6641283430981
 21
8.0000000000006821
 31
0.0
  0
LINE
  8
DETAIL
  6
CONTINUOUS
 62
     5
 10
-83.264128344401797
 20
8.0000000000006821
 30
0.0
 11
-159.7431457505017
 21
8.0000000000006821
 31
0.0
  0
LINE
  8
DETAIL
  6
CONTINUOUS
 62
     5
 10
-375.84314575050212
 20
8.0000000000006821
 30
0.0
 11
-217.8210235533015
 21
8.0000000000006821
 31
0.0
  0
LINE
  8
DETAIL
  6
CONTINUOUS
 62
     5
 10
-247.800000000002
 20
12.400000000000089
 30
0.0
 11
-400.00000000000267
 21
12.400000000000089
 31
0.0
  0
LINE
  8
DETAIL
  6
CONTINUOUS
 62
     5
 10
350.79999999999927
 20
12.400000000000089
 30
0.0
 11
399.99999999999733
 21
12.400000000000089
 31
0.0
  0
LINE
  8
DETAIL
  6
CONTINUOUS
 62
     5
 10
350.79999999999927
 20
13.00000000000068
 30
0.0
 11
-247.800000000002
 21
13.00000000000068
 31
0.0
  0
LINE
  8
DETAIL
  6
CONTINUOUS
 62
     5
 10
-247.800000000002
 20
32.000000000000448
 30
0.0
 11
350.79999999999927
 21
32.000000000000448
 31
0.0
  0
LINE
  8
DETAIL
  6
CONTINUOUS
 62
     5
 10
72.533312132997693
 20
3.0053459866996941
 30
0.0
 11
-83.135908030101746
 21
7.9979444524997234
 31
0.0
  0
LINE
  8
DETAIL
  6
CONTINUOUS
 62
     5
 10
-163.4201010126026
 20
9.5230447378003191
 30
0.0
 11
-165.72548339960119
 21
11.828427124700051
 31
0.0
  0
LINE
  8
DETAIL
  6
CONTINUOUS
 62
     5
 10
-310.800000000002
 20
42.999999999999538
 30
0.0
 11
-310.800000000002
 21
216.0000000000002
 31
0.0
  0
LINE
  8
DETAIL
  6
CONTINUOUS
 62
     5
 10
-310.800000000002
 20
233.9999999999998
 30
0.0
 11
-310.800000000002
 21
407.00000000000063
 31
0.0
  0
LINE
  8
DETAIL
  6
CONTINUOUS
 62
     5
 10
-310.800000000002
 20
424.99999999999977
 30
0.0
 11
-310.800000000002
 21
598.00000000000057
 31
0.0
  0
LINE
  8
DETAIL
  6
CONTINUOUS
 62
     5
 10
-276.4000000000006
 20
37.999999999999538
 30
0.0
 11
-305.800000000002
 21
37.999999999999538
 31
0.0
  0
LINE
  8
DETAIL
  6
CONTINUOUS
 62
     5
 10
-271.40000000000049
 20
42.999999999999538
 30
0.0
 11
-271.40000000000049
 21
216.0000000000002
 31
0.0
  0
LINE
  8
DETAIL
  6
CONTINUOUS
 62
     5
 10
-271.40000000000049
 20
233.9999999999998
 30
0.0
 11
-271.40000000000049
 21
407.00000000000063
 31
0.0
  0
LINE
  8
DETAIL
  6
CONTINUOUS
 62
     5
 10
-271.40000000000049
 20
424.99999999999977
 30
0.0
 11
-271.40000000000049
 21
598.00000000000057
 31
0.0
  0
LINE
  8
DETAIL
  6
CONTINUOUS
 62
     5
 10
-247.800000000002
 20
12.400000000000089
 30
0.0
 11
-247.800000000002
 21
614.99999999999966
 31
0.0
  0
LINE
  8
DETAIL
  6
CONTINUOUS
 62
     5
 10
-181.51872240880309
 20
13.00000000000068
 30
0.0
 11
-178.0353829072601
 21
0.0
 31
0.0
  0
LINE
  8
DETAIL
  6
CONTINUOUS
 62
     5
 10
-219.9646170927945
 20
0.0
 30
0.0
 11
-216.48127759110139
 21
13.00000000000068
 31
0.0
  0
LINE
  8
DETAIL
  6
CONTINUOUS
 62
     5
 10
-421.33498192202478
 20
258.50458442255098
 30
0.0
 11
-464.6650054533028
 21
241.4364340804002
 31
0.0
  0
LINE
  8
DETAIL
  6
CONTINUOUS
 62
     5
 10
-305.800000000002
 20
221.0000000000002
 30
0.0
 11
-276.4000000000006
 21
221.0000000000002
 31
0.0
  0
LINE
  8
DETAIL
  6
CONTINUOUS
 62
     5
 10
-276.4000000000006
 20
228.9999999999998
 30
0.0
 11
-305.800000000002
 21
228.9999999999998
 31
0.0
  0
LINE
  8
DETAIL
  6
CONTINUOUS
 62
     5
 10
399.99999999999733
 20
531.39999999999986
 30
0.0
 11
401.36650122679828
 21
531.93827914810095
 31
0.0
  0
LINE
  8
DETAIL
  6
CONTINUOUS
 62
     5
 10
401.36650122679828
 20
516.73827914810113
 30
0.0
 11
399.99999999999733
 21
516.20000000000005
 31
0.0
  0
LINE
  8
DETAIL
  6
CONTINUOUS
 62
     5
 10
-325.47451660040218
 20
11.828427124700051
 30
0.0
 11
-327.7798989873009
 21
9.5230447378003191
 31
0.0
  0
LINE
  8
DETAIL
  6
CONTINUOUS
 62
     5
 10
335.50294372519869
 20
13.00000000000068
 30
0.0
 11
338.97989898739712
 21
9.5230447378003191
 31
0.0
  0
LINE
  8
DETAIL
  6
CONTINUOUS
 62
     5
 10
-255.4745166004023
 20
11.828427124700051
 30
0.0
 11
-257.77989898730078
 21
9.5230447378003191
 31
0.0
  0
LINE
  8
DETAIL
  6
CONTINUOUS
 62
     5
 10
401.99999999999812
 20
552.69999999999948
 30
0.0
 11
411.13679925489748
 21
560.02365148049989
 31
0.0
  0
LINE
  8
DETAIL
  6
CONTINUOUS
 62
     5
 10
-305.800000000002
 20
412.00000000000068
 30
0.0
 11
-276.4000000000006
 21
412.00000000000068
 31
0.0
  0
LINE
  8
DETAIL
  6
CONTINUOUS
 62
     5
 10
-276.4000000000006
 20
419.99999999999972
 30
0.0
 11
-305.800000000002
 21
419.99999999999972
 31
0.0
  0
LINE
  8
DETAIL
  6
CONTINUOUS
 62
     5
 10
-305.800000000002
 20
603.00000000000068
 30
0.0
 11
-276.4000000000006
 21
603.00000000000068
 31
0.0
  0
LINE
  8
DETAIL
  6
CONTINUOUS
 62
     5
 10
-400.00000000000267
 20
614.99999999999966
 30
0.0
 11
399.99999999999733
 21
614.99999999999966
 31
0.0
  0
LINE
  8
DETAIL
  6
CONTINUOUS
 62
     5
 10
328.48127759119689
 20
13.00000000000068
 30
0.0
 11
331.9646170927399
 21
0.0
 31
0.0
  0
LINE
  8
DETAIL
  6
CONTINUOUS
 62
     5
 10
-367.50294171010228
 20
642.00000000000068
 30
0.0
 11
367.50294171009682
 21
642.00000000000068
 31
0.0
  0
LINE
  8
DETAIL
  6
CONTINUOUS
 62
     5
 10
350.79999999999927
 20
12.400000000000089
 30
0.0
 11
350.79999999999927
 21
614.99999999999966
 31
0.0
  0
LINE
  8
DETAIL
  6
CONTINUOUS
 62
     5
 10
357.7999999999974
 20
72.400000000000091
 30
0.0
 11
357.7999999999974
 21
542.40000000000032
 31
0.0
  0
LINE
  8
DETAIL
  6
CONTINUOUS
 62
     5
 10
290.03538290720547
 20
0.0
 30
0.0
 11
293.51872240889861
 21
13.00000000000068
 31
0.0
  0
LINE
  8
DETAIL
  6
CONTINUOUS
 62
     5
 10
401.36650122679828
 20
569.46172085180001
 30
0.0
 11
399.99999999999733
 21
569.99999999999966
 31
0.0
  0
LINE
  8
DETAIL
  6
CONTINUOUS
 62
     5
 10
377.79999999999751
 20
542.40000000000032
 30
0.0
 11
377.79999999999751
 21
72.400000000000091
 31
0.0
  0
LINE
  8
DETAIL
  6
CONTINUOUS
 62
     5
 10
399.99999999999733
 20
631.35430572810014
 30
0.0
 11
399.99999999999733
 21
12.400000000000089
 31
0.0
  0
LINE
  8
SERVICESPACE
  6
AM_ISO02W050
 62
     2
 10
474.99999999999721
 20
1200.0
 30
0.0
 11
474.99999999999721
 21
0.0
 31
0.0
  0
LINE
  8
DETAIL
  6
CONTINUOUS
 62
     5
 10
401.99999999999812
 20
530.69996171559956
 30
0.0
 11
401.99999999999812
 21
528.50005358490102
 31
0.0
  0
LINE
  8
DETAIL
  6
CONTINUOUS
 62
     5
 10
401.99999999999812
 20
528.44204456510045
 30
0.0
 11
401.99999999999812
 21
527.54632238430054
 31
0.0
  0
LINE
  8
DETAIL
  6
CONTINUOUS
 62
     5
 10
401.99999999999812
 20
517.66869671610016
 30
0.0
 11
401.99999999999812
 21
568.53130328380087
 31
0.0
  0
LINE
  8
DETAIL
  6
CONTINUOUS
 62
     5
 10
241.72548339959849
 20
11.828427124700051
 30
0.0
 11
239.4201010126971
 21
9.5230447378003191
 31
0.0
  0
LINE
  8
DETAIL
  6
CONTINUOUS
 62
     5
 10
411.33504982289833
 20
561.0735935464005
 30
0.0
 11
401.99999999999812
 21
566.10000000000014
 31
0.0
  0
LINE
  8
DETAIL
  6
CONTINUOUS
 62
     5
 10
383.72548339959849
 20
11.828427124700051
 30
0.0
 11
381.42010101269722
 21
9.5230447378003191
 31
0.0
  0
LINE
  8
DETAIL
  6
CONTINUOUS
 62
     5
 10
368.35146893609817
 20
641.64852703379995
 30
0.0
 11
369.82447394389692
 21
640.17552158139983
 31
0.0
  0
ARC
  8
DETAIL
  6
CONTINUOUS
 62
     5
 10
400.99999999999898
 20
568.53130328380087
 30
0.0
 40
1.0
 50
0.0
 51
68.500000000029601
  0
ARC
  8
DETAIL
  6
CONTINUOUS
 62
     5
 10
400.99999999999898
 20
517.66869671610016
 30
0.0
 40
1.0
 50
291.49999999997038
 51
0.0
  0
ARC
  8
DETAIL
  6
CONTINUOUS
 62
     5
 10
400.99999999999898
 20
532.86869671609986
 30
0.0
 40
1.0
 50
291.49999999997038
 51
0.0
  0
ARC
  8
DETAIL
  6
CONTINUOUS
 62
     5
 10
411.09800571839781
 20
560.63335486970004
 30
0.0
 40
0.5
 50
323.65597663929782
 51
61.699999999926241
  0
ARC
  8
DETAIL
  6
CONTINUOUS
 62
     5
 10
-395.00000000000267
 20
631.35430563610021
 30
0.0
 40
5.0
 50
106.6238435244168
 51
179.99999894620129
  0
ARC
  8
DETAIL
  6
CONTINUOUS
 62
     5
 10
394.99999999999721
 20
631.35430545309976
 30
0.0
 40
5.0
 50
0.0000031511694095
 51
73.376157075542238
  0
ARC
  8
DETAIL
  6
CONTINUOUS
 62
     5
 10
-370.2487369372011
 20
640.59978672569991
 30
0.0
 40
0.6
 50
270.12275755047551
 51
314.99985475407283
  0
ARC
  8
DETAIL
  6
CONTINUOUS
 62
     5
 10
370.24872941339709
 20
640.59978733269975
 30
0.0
 40
0.5999997738000001
 50
225.00063438622911
 51
269.8778939638367
  0
ARC
  8
DETAIL
  6
CONTINUOUS
 62
     5
 10
-367.50293969500223
 20
640.8000000000003
 30
0.0
 40
1.1999999999999991
 50
90.000096211337393
 51
135.0000745164221
  0
ARC
  8
DETAIL
  6
CONTINUOUS
 62
     5
 10
367.50294372519869
 20
640.8000000000003
 30
0.0
 40
1.1999999999999991
 50
45.00006586993026
 51
90.000096211441615
  0
ARC
  8
DETAIL
  6
CONTINUOUS
 62
     5
 10
-83.264127195702713
 20
3.9999999999997722
 30
0.0
 40
4.0
 50
88.163081072303655
 51
90.000016454423459
  0
ARC
  8
DETAIL
  6
CONTINUOUS
 62
     5
 10
228.6641271957979
 20
3.9999999999997722
 30
0.0
 40
4.0
 50
89.999983565743179
 51
91.836918913619215
  0
ARC
  8
DETAIL
  6
CONTINUOUS
 62
     5
 10
72.699999999997999
 20
8.202673680400494
 30
0.0
 40
5.2000000000000002
 50
268.16304853255872
 51
271.8369514675976
  0
ARC
  8
DETAIL
  6
CONTINUOUS
 62
     5
 10
377.74314575049812
 20
13.2000000000005
 30
0.0
 40
5.2000000000000002
 50
270.0
 51
315.00000000002763
  0
ARC
  8
DETAIL
  6
CONTINUOUS
 62
     5
 10
342.65685424949879
 20
13.2000000000005
 30
0.0
 40
5.2000000000000002
 50
224.9999999999724
 51
270.0
  0
ARC
  8
DETAIL
  6
CONTINUOUS
 62
     5
 10
-159.7431457505017
 20
13.2000000000005
 30
0.0
 40
5.2000000000000002
 50
224.9999999999724
 51
270.0
  0
ARC
  8
DETAIL
  6
CONTINUOUS
 62
     5
 10
-261.45685424950261
 20
13.2000000000005
 30
0.0
 40
5.2000000000000002
 50
270.0
 51
315.00000000002763
  0
ARC
  8
DETAIL
  6
CONTINUOUS
 62
     5
 10
-331.45685424950261
 20
13.2000000000005
 30
0.0
 40
5.2000000000000002
 50
270.0
 51
315.00000000002763
  0
ARC
  8
DETAIL
  6
CONTINUOUS
 62
     5
 10
-375.84314575050212
 20
13.2000000000005
 30
0.0
 40
5.2000000000000002
 50
224.9999999999724
 51
270.0
  0
ARC
  8
DETAIL
  6
CONTINUOUS
 62
     5
 10
235.74314575049809
 20
13.2000000000005
 30
0.0
 40
5.2000000000000002
 50
270.0
 51
315.00000000002763
  0
ARC
  8
DETAIL
  6
CONTINUOUS
 62
     5
 10
-301.94314575050163
 20
13.2000000000005
 30
0.0
 40
5.2000000000000002
 50
224.9999999999724
 51
270.0
  0
ARC
  8
DETAIL
  6
CONTINUOUS
 62
     5
 10
-384.65391052430277
 20
8.9999999999997726
 30
0.0
 40
4.0
 50
44.99999999997236
 51
58.346124010658677
  0
ARC
  8
DETAIL
  6
CONTINUOUS
 62
     5
 10
-322.64608947560191
 20
8.9999999999997726
 30
0.0
 40
4.0
 50
121.6538759893413
 51
135.0000000000276
  0
ARC
  8
DETAIL
  6
CONTINUOUS
 62
     5
 10
-310.75391052430223
 20
8.9999999999997726
 30
0.0
 40
4.0
 50
44.99999999997236
 51
58.346124010658677
  0
ARC
  8
DETAIL
  6
CONTINUOUS
 62
     5
 10
-252.64608947560191
 20
8.9999999999997726
 30
0.0
 40
4.0
 50
121.6538759893413
 51
135.0000000000276
  0
ARC
  8
DETAIL
  6
CONTINUOUS
 62
     5
 10
386.55391052439882
 20
8.9999999999997726
 30
0.0
 40
4.0
 50
121.653875991294
 51
135.0000000000276
  0
ARC
  8
DETAIL
  6
CONTINUOUS
 62
     5
 10
244.55391052439791
 20
8.9999999999997726
 30
0.0
 40
4.0
 50
105.51348822431839
 51
135.0000000000276
  0
ARC
  8
DETAIL
  6
CONTINUOUS
 62
     5
 10
-168.5539105243015
 20
8.9999999999997726
 30
0.0
 40
4.0
 50
44.99999999997236
 51
90.0
  0
ARC
  8
DETAIL
  6
CONTINUOUS
 62
     5
 10
-410.99999999630199
 20
568.93034488750004
 30
0.0
 40
4.0
 50
119.9999999999973
 51
179.99999999837149
  0
ARC
  8
DETAIL
  6
CONTINUOUS
 62
     5
 10
-460.99999999990092
 20
75.376401417599936
 30
0.0
 40
10.0
 50
180.09290183281269
 51
248.50000000002959
  0
ARC
  8
DETAIL
  6
CONTINUOUS
 62
     5
 10
-460.99999991130329
 20
232.1322557514998
 30
0.0
 40
10.0
 50
111.4999999999704
 51
179.90709259047571
  0
ARC
  8
DETAIL
  6
CONTINUOUS
 62
     5
 10
-424.99999433580058
 20
267.80875988010052
 30
0.0
 40
9.9999998468999998
 50
291.50000124786561
 51
0.0
  0
ARC
  8
DETAIL
  6
CONTINUOUS
 62
     5
 10
-305.800000000002
 20
598.00000000000057
 30
0.0
 40
5.0
 50
90.0
 51
180.0
  0
ARC
  8
DETAIL
  6
CONTINUOUS
 62
     5
 10
-305.800000000002
 20
424.99999999999977
 30
0.0
 40
5.0
 50
180.0
 51
270.0
  0
ARC
  8
DETAIL
  6
CONTINUOUS
 62
     5
 10
-276.4000000000006
 20
233.9999999999998
 30
0.0
 40
5.0
 50
270.0
 51
0.0
  0
ARC
  8
DETAIL
  6
CONTINUOUS
 62
     5
 10
-276.4000000000006
 20
407.00000000000063
 30
0.0
 40
5.0
 50
0.0000001160103503
 51
90.0
  0
ARC
  8
DETAIL
  6
CONTINUOUS
 62
     5
 10
-305.800000000002
 20
407.00000000000063
 30
0.0
 40
5.0
 50
90.0
 51
180.0
  0
ARC
  8
DETAIL
  6
CONTINUOUS
 62
     5
 10
-305.800000000002
 20
233.9999999999998
 30
0.0
 40
5.0
 50
180.0
 51
270.0
  0
ARC
  8
DETAIL
  6
CONTINUOUS
 62
     5
 10
-328.80000000000109
 20
593.50000000000023
 30
0.0
 40
10.0
 50
0.0
 51
180.0
  0
ARC
  8
DETAIL
  6
CONTINUOUS
 62
     5
 10
-328.80000000000109
 20
47.999999999999538
 30
0.0
 40
10.0
 50
180.0
 51
0.0
  0
ARC
  8
DETAIL
  6
CONTINUOUS
 62
     5
 10
-276.4000000000006
 20
42.999999999999538
 30
0.0
 40
5.0
 50
270.0
 51
0.0
  0
ARC
  8
DETAIL
  6
CONTINUOUS
 62
     5
 10
-276.4000000000006
 20
216.0000000000002
 30
0.0
 40
5.0
 50
0.0000001160103503
 51
90.0
  0
ARC
  8
DETAIL
  6
CONTINUOUS
 62
     5
 10
-305.800000000002
 20
216.0000000000002
 30
0.0
 40
5.0
 50
90.0
 51
180.0
  0
ARC
  8
DETAIL
  6
CONTINUOUS
 62
     5
 10
-305.800000000002
 20
42.999999999999538
 30
0.0
 40
5.0
 50
180.0
 51
270.0
  0
ARC
  8
DETAIL
  6
CONTINUOUS
 62
     5
 10
-276.4000000000006
 20
424.99999999999977
 30
0.0
 40
5.0
 50
270.0
 51
0.0
  0
ARC
  8
DETAIL
  6
CONTINUOUS
 62
     5
 10
-276.4000000000006
 20
598.00000000000057
 30
0.0
 40
5.0
 50
0.0000001160103503
 51
90.0
  0
ARC
  8
DETAIL
  6
CONTINUOUS
 62
     5
 10
367.79999999999751
 20
542.40000000000032
 30
0.0
 40
10.0
 50
0.0
 51
180.0
  0
ARC
  8
DETAIL
  6
CONTINUOUS
 62
     5
 10
367.79999999999751
 20
72.400000000000091
 30
0.0
 40
10.0
 50
180.0
 51
0.0
  0
POLYLINE
  8
DETAIL
  6
CONTINUOUS
 62
     5
 66
     1
 10
0.0
 20
0.0
 30
0.0
  0
VERTEX
  8
DETAIL
  6
CONTINUOUS
 62
     5
 10
411.50074230309917
 20
560.337038749101
 30
0.0
  0
VERTEX
  8
DETAIL
  6
CONTINUOUS
 62
     5
 10
411.46180415039669
 20
560.30052578218942
 30
0.0
  0
VERTEX
  8
DETAIL
  6
CONTINUOUS
 62
     5
 10
411.42237023042185
 20
560.26454504254343
 30
0.0
  0
VERTEX
  8
DETAIL
  6
CONTINUOUS
 62
     5
 10
411.38250545667103
 20
560.22904184086258
 30
0.0
  0
VERTEX
  8
DETAIL
  6
CONTINUOUS
 62
     5
 10
411.34226634157341
 20
560.1939662693328
 30
0.0
  0
VERTEX
  8
DETAIL
  6
CONTINUOUS
 62
     5
 10
411.30169417827557
 20
560.15927708223126
 30
0.0
  0
VERTEX
  8
DETAIL
  6
CONTINUOUS
 62
     5
 10
411.26082861398856
 20
560.12493398490699
 30
0.0
  0
VERTEX
  8
DETAIL
  6
CONTINUOUS
 62
     5
 10
411.21970505369666
 20
560.09090056532875
 30
0.0
  0
VERTEX
  8
DETAIL
  6
CONTINUOUS
 62
     5
 10
411.1783510397409
 20
560.05714760760418
 30
0.0
  0
VERTEX
  8
DETAIL
  6
CONTINUOUS
 62
     5
 10
411.13679326149838
 20
560.02364667649965
 30
0.0
  0
SEQEND
  8
DETAIL
  6
CONTINUOUS
 62
     5
  0
POLYLINE
  8
DETAIL
  6
CONTINUOUS
 62
     5
 66
     1
 10
0.0
 20
0.0
 30
0.0
  0
VERTEX
  8
DETAIL
  6
CONTINUOUS
 62
     5
 10
355.04999999999842
 20
639.99978828260066
 30
0.0
  0
VERTEX
  8
DETAIL
  6
CONTINUOUS
 62
     5
 10
355.69740969553544
 20
639.99979325346487
 30
0.0
  0
VERTEX
  8
DETAIL
  6
CONTINUOUS
 62
     5
 10
356.34481939106598
 20
639.99979900394453
 30
0.0
  0
VERTEX
  8
DETAIL
  6
CONTINUOUS
 62
     5
 10
356.99222908658948
 20
639.99980550863279
 30
0.0
  0
VERTEX
  8
DETAIL
  6
CONTINUOUS
 62
     5
 10
357.63963878210569
 20
639.99981268964768
 30
0.0
  0
VERTEX
  8
DETAIL
  6
CONTINUOUS
 62
     5
 10
358.28704847761492
 20
639.99982047179151
 30
0.0
  0
VERTEX
  8
DETAIL
  6
CONTINUOUS
 62
     5
 10
358.93445817311743
 20
639.99982879124548
 30
0.0
  0
VERTEX
  8
DETAIL
  6
CONTINUOUS
 62
     5
 10
359.58186786861393
 20
639.99983758485257
 30
0.0
  0
VERTEX
  8
DETAIL
  6
CONTINUOUS
 62
     5
 10
360.22927756410445
 20
639.99984678905639
 30
0.0
  0
VERTEX
  8
DETAIL
  6
CONTINUOUS
 62
     5
 10
360.87668725959003
 20
639.99985633731785
 30
0.0
  0
VERTEX
  8
DETAIL
  6
CONTINUOUS
 62
     5
 10
361.52409695507151
 20
639.99986616090825
 30
0.0
  0
VERTEX
  8
DETAIL
  6
CONTINUOUS
 62
     5
 10
362.17150665054953
 20
639.99987621542164
 30
0.0
  0
VERTEX
  8
DETAIL
  6
CONTINUOUS
 62
     5
 10
362.81891634602437
 20
639.99988646695579
 30
0.0
  0
VERTEX
  8
DETAIL
  6
CONTINUOUS
 62
     5
 10
363.46632604149818
 20
639.99989677979988
 30
0.0
  0
SEQEND
  8
DETAIL
  6
CONTINUOUS
 62
     5
  0
POLYLINE
  8
DETAIL
  6
CONTINUOUS
 62
     5
 66
     1
 10
0.0
 20
0.0
 30
0.0
  0
VERTEX
  8
DETAIL
  6
CONTINUOUS
 62
     5
 10
363.46632604149818
 20
639.99989677979988
 30
0.0
  0
VERTEX
  8
DETAIL
  6
CONTINUOUS
 62
     5
 10
363.84952498098539
 20
639.99990222526878
 30
0.0
  0
VERTEX
  8
DETAIL
  6
CONTINUOUS
 62
     5
 10
364.23272392049012
 20
639.99990636727478
 30
0.0
  0
VERTEX
  8
DETAIL
  6
CONTINUOUS
 62
     5
 10
364.61592286000462
 20
639.99990946096398
 30
0.0
  0
VERTEX
  8
DETAIL
  6
CONTINUOUS
 62
     5
 10
364.99912179952435
 20
639.99991165817028
 30
0.0
  0
VERTEX
  8
DETAIL
  6
CONTINUOUS
 62
     5
 10
365.38232073904805
 20
639.99991299864644
 30
0.0
  0
VERTEX
  8
DETAIL
  6
CONTINUOUS
 62
     5
 10
365.76551967857421
 20
639.99991348824278
 30
0.0
  0
VERTEX
  8
DETAIL
  6
CONTINUOUS
 62
     5
 10
366.14871861809996
 20
639.99991304552123
 30
0.0
  0
VERTEX
  8
DETAIL
  6
CONTINUOUS
 62
     5
 10
366.53191755762248
 20
639.99991154802467
 30
0.0
  0
VERTEX
  8
DETAIL
  6
CONTINUOUS
 62
     5
 10
366.91511649713891
 20
639.99990873057686
 30
0.0
  0
VERTEX
  8
DETAIL
  6
CONTINUOUS
 62
     5
 10
367.2983154366425
 20
639.99990417270578
 30
0.0
  0
VERTEX
  8
DETAIL
  6
CONTINUOUS
 62
     5
 10
367.68151437609691
 20
639.99989677979988
 30
0.0
  0
SEQEND
  8
DETAIL
  6
CONTINUOUS
 62
     5
  0
POLYLINE
  8
DETAIL
  6
CONTINUOUS
 62
     5
 66
     1
 10
0.0
 20
0.0
 30
0.0
  0
VERTEX
  8
DETAIL
  6
CONTINUOUS
 62
     5
 10
367.68151437609691
 20
639.99989677979988
 30
0.0
  0
VERTEX
  8
DETAIL
  6
CONTINUOUS
 62
     5
 10
367.87888769963115
 20
639.99989202798804
 30
0.0
  0
VERTEX
  8
DETAIL
  6
CONTINUOUS
 62
     5
 10
368.07626102320211
 20
639.99988703312943
 30
0.0
  0
VERTEX
  8
DETAIL
  6
CONTINUOUS
 62
     5
 10
368.27363434657821
 20
639.99988161011424
 30
0.0
  0
VERTEX
  8
DETAIL
  6
CONTINUOUS
 62
     5
 10
368.4710076695423
 20
639.99987558452324
 30
0.0
  0
VERTEX
  8
DETAIL
  6
CONTINUOUS
 62
     5
 10
368.66838099235486
 20
639.99986912737825
 30
0.0
  0
VERTEX
  8
DETAIL
  6
CONTINUOUS
 62
     5
 10
368.86575431584532
 20
639.99986282157818
 30
0.0
  0
VERTEX
  8
DETAIL
  6
CONTINUOUS
 62
     5
 10
369.06312764081957
 20
639.99985722959798
 30
0.0
  0
VERTEX
  8
DETAIL
  6
CONTINUOUS
 62
     5
 10
369.26050096591393
 20
639.9998512239348
 30
0.0
  0
VERTEX
  8
DETAIL
  6
CONTINUOUS
 62
     5
 10
369.45787428697633
 20
639.99984150532532
 30
0.0
  0
VERTEX
  8
DETAIL
  6
CONTINUOUS
 62
     5
 10
369.65524760373603
 20
639.99982770433473
 30
0.0
  0
VERTEX
  8
DETAIL
  6
CONTINUOUS
 62
     5
 10
369.85262093500927
 20
639.99982388039518
 30
0.0
  0
VERTEX
  8
DETAIL
  6
CONTINUOUS
 62
     5
 10
370.04999426499131
 20
639.99981710858947
 30
0.0
  0
VERTEX
  8
DETAIL
  6
CONTINUOUS
 62
     5
 10
370.24736757829942
 20
639.99978828260066
 30
0.0
  0
SEQEND
  8
DETAIL
  6
CONTINUOUS
 62
     5
  0
POLYLINE
  8
DETAIL
  6
CONTINUOUS
 62
     5
 66
     1
 10
0.0
 20
0.0
 30
0.0
  0
VERTEX
  8
DETAIL
  6
CONTINUOUS
 62
     5
 10
396.43043575869802
 20
636.14532373479926
 30
0.0
  0
VERTEX
  8
DETAIL
  6
CONTINUOUS
 62
     5
 10
393.2354669513939
 20
637.03702368036875
 30
0.0
  0
VERTEX
  8
DETAIL
  6
CONTINUOUS
 62
     5
 10
390.00930344468082
 20
637.81361798119633
 30
0.0
  0
VERTEX
  8
DETAIL
  6
CONTINUOUS
 62
     5
 10
386.75612515555304
 20
638.47385835429395
 30
0.0
  0
VERTEX
  8
DETAIL
  6
CONTINUOUS
 62
     5
 10
383.48013824244293
 20
639.01651894796737
 30
0.0
  0
VERTEX
  8
DETAIL
  6
CONTINUOUS
 62
     5
 10
380.18606585982468
 20
639.44081584096659
 30
0.0
  0
VERTEX
  8
DETAIL
  6
CONTINUOUS
 62
     5
 10
376.87910420446531
 20
639.74636947063095
 30
0.0
  0
VERTEX
  8
DETAIL
  6
CONTINUOUS
 62
     5
 10
373.56446690205877
 20
639.93281517262176
 30
0.0
  0
VERTEX
  8
DETAIL
  6
CONTINUOUS
 62
     5
 10
370.24736757829942
 20
639.99978828260066
 30
0.0
  0
SEQEND
  8
DETAIL
  6
CONTINUOUS
 62
     5
  0
POLYLINE
  8
DETAIL
  6
CONTINUOUS
 62
     5
 66
     1
 10
0.0
 20
0.0
 30
0.0
  0
VERTEX
  8
DETAIL
  6
CONTINUOUS
 62
     5
 10
370.15961412979777
 20
639.99993469460026
 30
0.0
  0
VERTEX
  8
DETAIL
  6
CONTINUOUS
 62
     5
 10
370.16903876398629
 20
639.99992299248925
 30
0.0
  0
VERTEX
  8
DETAIL
  6
CONTINUOUS
 62
     5
 10
370.17846339704289
 20
639.99991031936281
 30
0.0
  0
VERTEX
  8
DETAIL
  6
CONTINUOUS
 62
     5
 10
370.18788802882057
 20
639.99989667647515
 30
0.0
  0
VERTEX
  8
DETAIL
  6
CONTINUOUS
 62
     5
 10
370.19731265917193
 20
639.99988206508056
 30
0.0
  0
VERTEX
  8
DETAIL
  6
CONTINUOUS
 62
     5
 10
370.20673728795009
 20
639.99986648643358
 30
0.0
  0
VERTEX
  8
DETAIL
  6
CONTINUOUS
 62
     5
 10
370.2161619150076
 20
639.9998499417884
 30
0.0
  0
VERTEX
  8
DETAIL
  6
CONTINUOUS
 62
     5
 10
370.22558654019758
 20
639.99983243239944
 30
0.0
  0
SEQEND
  8
DETAIL
  6
CONTINUOUS
 62
     5
  0
POLYLINE
  8
DETAIL
  6
CONTINUOUS
 62
     5
 66
     1
 10
0.0
 20
0.0
 30
0.0
  0
VERTEX
  8
DETAIL
  6
CONTINUOUS
 62
     5
 10
396.43043575869802
 20
636.14532373479926
 30
0.0
  0
VERTEX
  8
DETAIL
  6
CONTINUOUS
 62
     5
 10
395.7025561893343
 20
636.3593860045296
 30
0.0
  0
VERTEX
  8
DETAIL
  6
CONTINUOUS
 62
     5
 10
394.97287878771232
 20
636.56747121376213
 30
0.0
  0
VERTEX
  8
DETAIL
  6
CONTINUOUS
 62
     5
 10
394.24147804398569
 20
636.76956014740131
 30
0.0
  0
VERTEX
  8
DETAIL
  6
CONTINUOUS
 62
     5
 10
393.5084284483076
 20
636.96563359035076
 30
0.0
  0
VERTEX
  8
DETAIL
  6
CONTINUOUS
 62
     5
 10
392.77380449083148
 20
637.15567232751437
 30
0.0
  0
VERTEX
  8
DETAIL
  6
CONTINUOUS
 62
     5
 10
392.03768066171062
 20
637.33965714379633
 30
0.0
  0
VERTEX
  8
DETAIL
  6
CONTINUOUS
 62
     5
 10
391.30013145109842
 20
637.51756882410041
 30
0.0
  0
SEQEND
  8
DETAIL
  6
CONTINUOUS
 62
     5
  0
POLYLINE
  8
DETAIL
  6
CONTINUOUS
 62
     5
 66
     1
 10
0.0
 20
0.0
 30
0.0
  0
VERTEX
  8
DETAIL
  6
CONTINUOUS
 62
     5
 10
391.30013145109842
 20
637.51756882410041
 30
0.0
  0
VERTEX
  8
DETAIL
  6
CONTINUOUS
 62
     5
 10
391.05420766814893
 20
637.57546623282701
 30
0.0
  0
VERTEX
  8
DETAIL
  6
CONTINUOUS
 62
     5
 10
390.80812400125433
 20
637.63269072362687
 30
0.0
  0
VERTEX
  8
DETAIL
  6
CONTINUOUS
 62
     5
 10
390.56188321041731
 20
637.68924162131361
 30
0.0
  0
VERTEX
  8
DETAIL
  6
CONTINUOUS
 62
     5
 10
390.31548805564051
 20
637.74511825070056
 30
0.0
  0
VERTEX
  8
DETAIL
  6
CONTINUOUS
 62
     5
 10
390.06894129692665
 20
637.80031993660168
 30
0.0
  0
VERTEX
  8
DETAIL
  6
CONTINUOUS
 62
     5
 10
389.82224569427831
 20
637.8548460038304
 30
0.0
  0
VERTEX
  8
DETAIL
  6
CONTINUOUS
 62
     5
 10
389.57540400769818
 20
637.90869577720025
 30
0.0
  0
SEQEND
  8
DETAIL
  6
CONTINUOUS
 62
     5
  0
POLYLINE
  8
DETAIL
  6
CONTINUOUS
 62
     5
 66
     1
 10
0.0
 20
0.0
 30
0.0
  0
VERTEX
  8
DETAIL
  6
CONTINUOUS
 62
     5
 10
389.57540400769813
 20
637.90869577720025
 30
0.0
  0
VERTEX
  8
DETAIL
  6
CONTINUOUS
 62
     5
 10
389.08049400317805
 20
638.0145322944494
 30
0.0
  0
VERTEX
  8
DETAIL
  6
CONTINUOUS
 62
     5
 10
388.58499194929379
 20
638.1176551348691
 30
0.0
  0
VERTEX
  8
DETAIL
  6
CONTINUOUS
 62
     5
 10
388.08892014801353
 20
638.21805907040755
 30
0.0
  0
VERTEX
  8
DETAIL
  6
CONTINUOUS
 62
     5
 10
387.59230090130563
 20
638.31573887301215
 30
0.0
  0
VERTEX
  8
DETAIL
  6
CONTINUOUS
 62
     5
 10
387.09515651113816
 20
638.41068931463076
 30
0.0
  0
VERTEX
  8
DETAIL
  6
CONTINUOUS
 62
     5
 10
386.59750927947937
 20
638.50290516721088
 30
0.0
  0
SEQEND
  8
DETAIL
  6
CONTINUOUS
 62
     5
  0
POLYLINE
  8
DETAIL
  6
CONTINUOUS
 62
     5
 66
     1
 10
0.0
 20
0.0
 30
0.0
  0
VERTEX
  8
DETAIL
  6
CONTINUOUS
 62
     5
 10
386.09938150829748
 20
638.59238120270015
 30
0.0
  0
VERTEX
  8
DETAIL
  6
CONTINUOUS
 62
     5
 10
385.83769586165403
 20
638.63825485867039
 30
0.0
  0
VERTEX
  8
DETAIL
  6
CONTINUOUS
 62
     5
 10
385.57587829219813
 20
638.6833730497242
 30
0.0
  0
VERTEX
  8
DETAIL
  6
CONTINUOUS
 62
     5
 10
385.31393088566301
 20
638.7277352341622
 30
0.0
  0
VERTEX
  8
DETAIL
  6
CONTINUOUS
 62
     5
 10
385.05185576263682
 20
638.77134088536104
 30
0.0
  0
VERTEX
  8
DETAIL
  6
CONTINUOUS
 62
     5
 10
384.78965541871338
 20
638.81418963890133
 30
0.0
  0
VERTEX
  8
DETAIL
  6
CONTINUOUS
 62
     5
 10
384.52733257782108
 20
638.85628122912567
 30
0.0
  0
VERTEX
  8
DETAIL
  6
CONTINUOUS
 62
     5
 10
384.26488996712663
 20
638.89761539177766
 30
0.0
  0
VERTEX
  8
DETAIL
  6
CONTINUOUS
 62
     5
 10
384.00233031379679
 20
638.93819186260112
 30
0.0
  0
SEQEND
  8
DETAIL
  6
CONTINUOUS
 62
     5
  0
POLYLINE
  8
DETAIL
  6
CONTINUOUS
 62
     5
 66
     1
 10
0.0
 20
0.0
 30
0.0
  0
VERTEX
  8
DETAIL
  6
CONTINUOUS
 62
     5
 10
384.00233031379679
 20
638.93819186260112
 30
0.0
  0
VERTEX
  8
DETAIL
  6
CONTINUOUS
 62
     5
 10
383.55227697515079
 20
639.00594145994501
 30
0.0
  0
VERTEX
  8
DETAIL
  6
CONTINUOUS
 62
     5
 10
383.10188065075801
 20
639.07146842055488
 30
0.0
  0
VERTEX
  8
DETAIL
  6
CONTINUOUS
 62
     5
 10
382.65115791144711
 20
639.1347710838653
 30
0.0
  0
VERTEX
  8
DETAIL
  6
CONTINUOUS
 62
     5
 10
382.20012532804702
 20
639.19584778931051
 30
0.0
  0
VERTEX
  8
DETAIL
  6
CONTINUOUS
 62
     5
 10
381.74879947138641
 20
639.25469687632506
 30
0.0
  0
VERTEX
  8
DETAIL
  6
CONTINUOUS
 62
     5
 10
381.29719691229411
 20
639.31131668434341
 30
0.0
  0
VERTEX
  8
DETAIL
  6
CONTINUOUS
 62
     5
 10
380.84533422159888
 20
639.36570555279991
 30
0.0
  0
SEQEND
  8
DETAIL
  6
CONTINUOUS
 62
     5
  0
POLYLINE
  8
DETAIL
  6
CONTINUOUS
 62
     5
 66
     1
 10
0.0
 20
0.0
 30
0.0
  0
VERTEX
  8
DETAIL
  6
CONTINUOUS
 62
     5
 10
380.84533422159888
 20
639.36570555279991
 30
0.0
  0
VERTEX
  8
DETAIL
  6
CONTINUOUS
 62
     5
 10
380.52233305740788
 20
639.40319855684015
 30
0.0
  0
VERTEX
  8
DETAIL
  6
CONTINUOUS
 62
     5
 10
380.19919673796716
 20
639.43955344603944
 30
0.0
  0
VERTEX
  8
DETAIL
  6
CONTINUOUS
 62
     5
 10
379.87593129575328
 20
639.47476967609714
 30
0.0
  0
VERTEX
  8
DETAIL
  6
CONTINUOUS
 62
     5
 10
379.55254276324274
 20
639.50884670271284
 30
0.0
  0
VERTEX
  8
DETAIL
  6
CONTINUOUS
 62
     5
 10
379.22903717291206
 20
639.5417839815857
 30
0.0
  0
VERTEX
  8
DETAIL
  6
CONTINUOUS
 62
     5
 10
378.9054205572379
 20
639.57358096841506
 30
0.0
  0
VERTEX
  8
DETAIL
  6
CONTINUOUS
 62
     5
 10
378.58169894869661
 20
639.6042371189003
 30
0.0
  0
SEQEND
  8
DETAIL
  6
CONTINUOUS
 62
     5
  0
POLYLINE
  8
DETAIL
  6
CONTINUOUS
 62
     5
 66
     1
 10
0.0
 20
0.0
 30
0.0
  0
VERTEX
  8
DETAIL
  6
CONTINUOUS
 62
     5
 10
378.58169894869661
 20
639.6042371189003
 30
0.0
  0
VERTEX
  8
DETAIL
  6
CONTINUOUS
 62
     5
 10
378.14988367864919
 20
639.64333938260859
 30
0.0
  0
VERTEX
  8
DETAIL
  6
CONTINUOUS
 62
     5
 10
377.71787756963573
 20
639.68041374478344
 30
0.0
  0
VERTEX
  8
DETAIL
  6
CONTINUOUS
 62
     5
 10
377.28569492718265
 20
639.71545904998607
 30
0.0
  0
VERTEX
  8
DETAIL
  6
CONTINUOUS
 62
     5
 10
376.85335005681594
 20
639.74847414277781
 30
0.0
  0
VERTEX
  8
DETAIL
  6
CONTINUOUS
 62
     5
 10
376.42085726406208
 20
639.77945786771988
 30
0.0
  0
VERTEX
  8
DETAIL
  6
CONTINUOUS
 62
     5
 10
375.98823085444707
 20
639.80840906937362
 30
0.0
  0
VERTEX
  8
DETAIL
  6
CONTINUOUS
 62
     5
 10
375.55548513349731
 20
639.83532659230025
 30
0.0
  0
SEQEND
  8
DETAIL
  6
CONTINUOUS
 62
     5
  0
POLYLINE
  8
DETAIL
  6
CONTINUOUS
 62
     5
 66
     1
 10
0.0
 20
0.0
 30
0.0
  0
VERTEX
  8
DETAIL
  6
CONTINUOUS
 62
     5
 10
375.55548513349731
 20
639.83532659230025
 30
0.0
  0
VERTEX
  8
DETAIL
  6
CONTINUOUS
 62
     5
 10
375.2206959240051
 20
639.85475105247178
 30
0.0
  0
VERTEX
  8
DETAIL
  6
CONTINUOUS
 62
     5
 10
374.88583279362916
 20
639.87295889800725
 30
0.0
  0
VERTEX
  8
DETAIL
  6
CONTINUOUS
 62
     5
 10
374.55090237598387
 20
639.88994965703966
 30
0.0
  0
VERTEX
  8
DETAIL
  6
CONTINUOUS
 62
     5
 10
374.21591130468369
 20
639.90572285770213
 30
0.0
  0
VERTEX
  8
DETAIL
  6
CONTINUOUS
 62
     5
 10
373.88086621334321
 20
639.92027802812777
 30
0.0
  0
VERTEX
  8
DETAIL
  6
CONTINUOUS
 62
     5
 10
373.5457737355768
 20
639.93361469644958
 30
0.0
  0
VERTEX
  8
DETAIL
  6
CONTINUOUS
 62
     5
 10
373.21064050499899
 20
639.94573239080069
 30
0.0
  0
SEQEND
  8
DETAIL
  6
CONTINUOUS
 62
     5
  0
POLYLINE
  8
DETAIL
  6
CONTINUOUS
 62
     5
 66
     1
 10
0.0
 20
0.0
 30
0.0
  0
VERTEX
  8
DETAIL
  6
CONTINUOUS
 62
     5
 10
373.21064050499899
 20
639.94573239080069
 30
0.0
  0
VERTEX
  8
DETAIL
  6
CONTINUOUS
 62
     5
 10
372.78745894372338
 20
639.95929015775914
 30
0.0
  0
VERTEX
  8
DETAIL
  6
CONTINUOUS
 62
     5
 10
372.3642083796646
 20
639.97090412620253
 30
0.0
  0
VERTEX
  8
DETAIL
  6
CONTINUOUS
 62
     5
 10
371.94090221971334
 20
639.98057347454005
 30
0.0
  0
VERTEX
  8
DETAIL
  6
CONTINUOUS
 62
     5
 10
371.51755387076031
 20
639.9882973811799
 30
0.0
  0
VERTEX
  8
DETAIL
  6
CONTINUOUS
 62
     5
 10
371.09417673969614
 20
639.99407502453062
 30
0.0
  0
VERTEX
  8
DETAIL
  6
CONTINUOUS
 62
     5
 10
370.67078423341144
 20
639.99790558300106
 30
0.0
  0
VERTEX
  8
DETAIL
  6
CONTINUOUS
 62
     5
 10
370.247389758797
 20
639.99978823499964
 30
0.0
  0
SEQEND
  8
DETAIL
  6
CONTINUOUS
 62
     5
  0
POLYLINE
  8
DETAIL
  6
CONTINUOUS
 62
     5
 66
     1
 10
0.0
 20
0.0
 30
0.0
  0
VERTEX
  8
DETAIL
  6
CONTINUOUS
 62
     5
 10
-396.43043575860253
 20
636.14532373479926
 30
0.0
  0
VERTEX
  8
DETAIL
  6
CONTINUOUS
 62
     5
 10
-393.23546695129812
 20
637.03702368036886
 30
0.0
  0
VERTEX
  8
DETAIL
  6
CONTINUOUS
 62
     5
 10
-390.00930344458476
 20
637.81361798119678
 30
0.0
  0
VERTEX
  8
DETAIL
  6
CONTINUOUS
 62
     5
 10
-386.75612515545674
 20
638.47385835429441
 30
0.0
  0
VERTEX
  8
DETAIL
  6
CONTINUOUS
 62
     5
 10
-383.48013824234613
 20
639.01651894796771
 30
0.0
  0
VERTEX
  8
DETAIL
  6
CONTINUOUS
 62
     5
 10
-380.18606585972759
 20
639.44081584096716
 30
0.0
  0
VERTEX
  8
DETAIL
  6
CONTINUOUS
 62
     5
 10
-376.87910420436765
 20
639.74636947063095
 30
0.0
  0
VERTEX
  8
DETAIL
  6
CONTINUOUS
 62
     5
 10
-373.56446690196088
 20
639.93281517262187
 30
0.0
  0
VERTEX
  8
DETAIL
  6
CONTINUOUS
 62
     5
 10
-370.24736757820119
 20
639.99978828260066
 30
0.0
  0
SEQEND
  8
DETAIL
  6
CONTINUOUS
 62
     5
  0
POLYLINE
  8
DETAIL
  6
CONTINUOUS
 62
     5
 66
     1
 10
0.0
 20
0.0
 30
0.0
  0
VERTEX
  8
DETAIL
  6
CONTINUOUS
 62
     5
 10
370.24736757829942
 20
639.99978828260066
 30
0.0
  0
VERTEX
  8
DETAIL
  6
CONTINUOUS
 62
     5
 10
370.20045685292177
 20
640.00173034409511
 30
0.0
  0
VERTEX
  8
DETAIL
  6
CONTINUOUS
 62
     5
 10
370.15379024453455
 20
640.00733650773964
 30
0.0
  0
VERTEX
  8
DETAIL
  6
CONTINUOUS
 62
     5
 10
370.10770510752565
 20
640.01657749522826
 30
0.0
  0
VERTEX
  8
DETAIL
  6
CONTINUOUS
 62
     5
 10
370.06250331979885
 20
640.02939583819443
 30
0.0
  0
VERTEX
  8
DETAIL
  6
CONTINUOUS
 62
     5
 10
370.01845128298527
 20
640.04570587837861
 30
0.0
  0
VERTEX
  8
DETAIL
  6
CONTINUOUS
 62
     5
 10
369.97581112051381
 20
640.06541414794117
 30
0.0
  0
VERTEX
  8
DETAIL
  6
CONTINUOUS
 62
     5
 10
369.93483401284203
 20
640.0884008435404
 30
0.0
  0
VERTEX
  8
DETAIL
  6
CONTINUOUS
 62
     5
 10
369.89576862446614
 20
640.11453762025917
 30
0.0
  0
VERTEX
  8
DETAIL
  6
CONTINUOUS
 62
     5
 10
369.85886867411222
 20
640.14365110507242
 30
0.0
  0
VERTEX
  8
DETAIL
  6
CONTINUOUS
 62
     5
 10
369.82439293469719
 20
640.17552289720027
 30
0.0
  0
SEQEND
  8
DETAIL
  6
CONTINUOUS
 62
     5
  0
CIRCLE
  8
ARRANGE
  6
CONTINUOUS
 62
     1
 10
0.0
 20
0.0
 30
0.0
 40
15.0
  0
LINE
  8
BASIS
  6
CENTER
 62
     6
 10
0.0
 20
0.0
 30
0.0
 11
0.0
 21
682.38447559548945
 31
0.0
  0
LINE
  8
BASIS
  6
CENTER
 62
     6
 10
-388.90000000000867
 20
92.999999999999545
 30
0.0
 11
-417.90000000000958
 21
93.000000000002046
 31
0.0
  0
LINE
  8
DETAIL
  6
CONTINUOUS
 62
     5
 10
-400.00000000001182
 20
86.000000000000455
 30
0.0
 11
-417.9000000000114
 21
86.000000000002274
 31
0.0
  0
ARC
  8
DETAIL
  6
CONTINUOUS
 62
     5
 10
-417.90000000000958
 20
93.000000000002046
 30
0.0
 40
7.0
 50
180.0
 51
270.0
  0
LINE
  8
DETAIL
  6
CONTINUOUS
 62
     5
 10
-400.00000000001
 20
100.0000000000007
 30
0.0
 11
-410.90000000000867
 21
100.00000000000129
 31
0.0
  0
LINE
  8
BASIS
  6
CENTER
 62
     6
 10
-417.90000000000589
 20
135.50000000000199
 30
0.0
 11
-388.900000000006
 21
135.49999999999949
 31
0.0
  0
LINE
  8
DETAIL
  6
CONTINUOUS
 62
     5
 10
-417.85000000000667
 20
130.70000000000229
 30
0.0
 11
-400.00000000000722
 21
130.7000000000007
 31
0.0
  0
ARC
  8
DETAIL
  6
CONTINUOUS
 62
     5
 10
-417.85000000000582
 20
135.60000000000241
 30
0.0
 40
4.9000000000000004
 50
180.0
 51
270.0
  0
LINE
  8
DETAIL
  6
CONTINUOUS
 62
     5
 10
-413.05000000000649
 20
140.3000000000018
 30
0.0
 11
-400.00000000000631
 21
140.30000000000061
 31
0.0
  0
LINE
  8
DETAIL
  6
CONTINUOUS
 62
     5
 10
-413.05000000000558
 20
153.13396900318841
 30
0.0
 11
-413.05000000000649
 21
140.3000000000018
 31
0.0
  0
LINE
  8
BASIS
  6
CENTER
 62
     6
 10
-417.90000000000498
 20
156.84928455228891
 30
0.0
 11
-417.90000000000498
 21
148.66045199490159
 31
0.0
  0
LINE
  8
BASIS
  6
CENTER
 62
     6
 10
-417.90000000000958
 20
93.000000000002046
 30
0.0
 11
-417.90000000000782
 21
123.2493115107093
 31
0.0
  0
LINE
  8
BASIS
  6
CENTER
 62
     6
 10
-417.90000000000589
 20
135.50000000000199
 30
0.0
 11
-417.90000000000418
 21
160.4339689325372
 31
0.0
  0
LINE
  8
DETAIL
  6
CONTINUOUS
 62
     5
 10
-422.75000000000358
 20
153.13396900318929
 30
0.0
 11
-422.75000000000631
 21
135.60000000000281
 31
0.0
  0
LINE
  8
DETAIL
  6
CONTINUOUS
 62
     5
 10
-424.90000000000958
 20
93.000000000002714
 30
0.0
 11
-424.90000000000867
 21
115.0692178211645
 31
0.0
  0
POLYLINE
  8
DETAIL
  6
CONTINUOUS
 62
     5
 66
     1
 10
0.0
 20
0.0
 30
0.0
  0
VERTEX
  8
DETAIL
  6
CONTINUOUS
 62
     5
 10
-417.90000000000498
 20
156.84928455228891
 30
0.0
  0
VERTEX
  8
DETAIL
  6
CONTINUOUS
 62
     5
 10
-418.41847684311176
 20
156.8279936581493
 30
0.0
  0
VERTEX
  8
DETAIL
  6
CONTINUOUS
 62
     5
 10
-418.93391214118401
 20
156.76387655525625
 30
0.0
  0
VERTEX
  8
DETAIL
  6
CONTINUOUS
 62
     5
 10
-419.44207874329675
 20
156.65652161187504
 30
0.0
  0
VERTEX
  8
DETAIL
  6
CONTINUOUS
 62
     5
 10
-419.93869744543417
 20
156.50512837421178
 30
0.0
  0
VERTEX
  8
DETAIL
  6
CONTINUOUS
 62
     5
 10
-420.41939516844474
 20
156.30869162284773
 30
0.0
  0
VERTEX
  8
DETAIL
  6
CONTINUOUS
 62
     5
 10
-420.87859878882273
 20
156.06610161856571
 30
0.0
  0
VERTEX
  8
DETAIL
  6
CONTINUOUS
 62
     5
 10
-421.30964885493455
 20
155.77618275470115
 30
0.0
  0
VERTEX
  8
DETAIL
  6
CONTINUOUS
 62
     5
 10
-421.70437408520564
 20
155.43840129583845
 30
0.0
  0
VERTEX
  8
DETAIL
  6
CONTINUOUS
 62
     5
 10
-422.05289778473116
 20
155.05302370182991
 30
0.0
  0
VERTEX
  8
DETAIL
  6
CONTINUOUS
 62
     5
 10
-422.34383936132053
 20
154.62238435819137
 30
0.0
  0
VERTEX
  8
DETAIL
  6
CONTINUOUS
 62
     5
 10
-422.56441638131287
 20
154.15135258267108
 30
0.0
  0
VERTEX
  8
DETAIL
  6
CONTINUOUS
 62
     5
 10
-422.70292029654229
 20
153.65033636488351
 30
0.0
  0
VERTEX
  8
DETAIL
  6
CONTINUOUS
 62
     5
 10
-422.74977915230551
 20
153.13396900318932
 30
0.0
  0
SEQEND
  8
DETAIL
  6
CONTINUOUS
 62
     5
  0
POLYLINE
  8
DETAIL
  6
CONTINUOUS
 62
     5
 66
     1
 10
0.0
 20
0.0
 30
0.0
  0
VERTEX
  8
DETAIL
  6
CONTINUOUS
 62
     5
 10
-413.05022084760458
 20
153.13396900318841
 30
0.0
  0
VERTEX
  8
DETAIL
  6
CONTINUOUS
 62
     5
 10
-413.09707970336785
 20
153.65033636488997
 30
0.0
  0
VERTEX
  8
DETAIL
  6
CONTINUOUS
 62
     5
 10
-413.23558361860159
 20
154.15135258268398
 30
0.0
  0
VERTEX
  8
DETAIL
  6
CONTINUOUS
 62
     5
 10
-413.45616063860064
 20
154.62238435820962
 30
0.0
  0
VERTEX
  8
DETAIL
  6
CONTINUOUS
 62
     5
 10
-413.74710221519706
 20
155.05302370185231
 30
0.0
  0
VERTEX
  8
DETAIL
  6
CONTINUOUS
 62
     5
 10
-414.09562591473099
 20
155.43840129586306
 30
0.0
  0
VERTEX
  8
DETAIL
  6
CONTINUOUS
 62
     5
 10
-414.49035114501089
 20
155.77618275472679
 30
0.0
  0
VERTEX
  8
DETAIL
  6
CONTINUOUS
 62
     5
 10
-414.92140121113141
 20
156.06610161859282
 30
0.0
  0
VERTEX
  8
DETAIL
  6
CONTINUOUS
 62
     5
 10
-415.38060483151821
 20
156.30869162287445
 30
0.0
  0
VERTEX
  8
DETAIL
  6
CONTINUOUS
 62
     5
 10
-415.86130255453935
 20
156.50512837423031
 30
0.0
  0
VERTEX
  8
DETAIL
  6
CONTINUOUS
 62
     5
 10
-416.35792125668871
 20
156.6565216118795
 30
0.0
  0
VERTEX
  8
DETAIL
  6
CONTINUOUS
 62
     5
 10
-416.8660878588118
 20
156.76387655525201
 30
0.0
  0
VERTEX
  8
DETAIL
  6
CONTINUOUS
 62
     5
 10
-417.38152315689132
 20
156.82799365814648
 30
0.0
  0
SEQEND
  8
DETAIL
  6
CONTINUOUS
 62
     5
  0
POLYLINE
  8
DETAIL
  6
CONTINUOUS
 62
     5
 66
     1
 10
0.0
 20
0.0
 30
0.0
  0
VERTEX
  8
DETAIL
  6
CONTINUOUS
 62
     5
 10
-417.90000000000782
 20
120.4315458300086
 30
0.0
  0
VERTEX
  8
DETAIL
  6
CONTINUOUS
 62
     5
 10
-418.5953678894619
 20
120.40500305724282
 30
0.0
  0
VERTEX
  8
DETAIL
  6
CONTINUOUS
 62
     5
 10
-419.2866870530338
 20
120.32527585326697
 30
0.0
  0
VERTEX
  8
DETAIL
  6
CONTINUOUS
 62
     5
 10
-419.96964808018083
 20
120.19178945839747
 30
0.0
  0
VERTEX
  8
DETAIL
  6
CONTINUOUS
 62
     5
 10
-420.63973063514163
 20
120.00377011837848
 30
0.0
  0
VERTEX
  8
DETAIL
  6
CONTINUOUS
 62
     5
 10
-421.29159938888768
 20
119.7600801766053
 30
0.0
  0
VERTEX
  8
DETAIL
  6
CONTINUOUS
 62
     5
 10
-421.91939170990906
 20
119.45944500003723
 30
0.0
  0
VERTEX
  8
DETAIL
  6
CONTINUOUS
 62
     5
 10
-422.51576208640847
 20
119.10058867756831
 30
0.0
  0
VERTEX
  8
DETAIL
  6
CONTINUOUS
 62
     5
 10
-423.07237263058511
 20
118.6823895023163
 30
0.0
  0
VERTEX
  8
DETAIL
  6
CONTINUOUS
 62
     5
 10
-423.57869508516529
 20
118.2046105900116
 30
0.0
  0
VERTEX
  8
DETAIL
  6
CONTINUOUS
 62
     5
 10
-424.02283366938701
 20
117.6681684107908
 30
0.0
  0
VERTEX
  8
DETAIL
  6
CONTINUOUS
 62
     5
 10
-424.39075107625587
 20
117.07704988535214
 30
0.0
  0
VERTEX
  8
DETAIL
  6
CONTINUOUS
 62
     5
 10
-424.6680671521425
 20
116.43817354105724
 30
0.0
  0
VERTEX
  8
DETAIL
  6
CONTINUOUS
 62
     5
 10
-424.84096636148871
 20
115.76287743291427
 30
0.0
  0
VERTEX
  8
DETAIL
  6
CONTINUOUS
 62
     5
 10
-424.90000000000867
 20
115.0692178211645
 30
0.0
  0
SEQEND
  8
DETAIL
  6
CONTINUOUS
 62
     5
  0
LINE
  8
DETAIL
  6
CONTINUOUS
 62
     5
 10
-410.90000000000867
 20
100.00000000000129
 30
0.0
 11
-410.90000000000782
 21
115.06921782116341
 31
0.0
  0
POLYLINE
  8
DETAIL
  6
CONTINUOUS
 62
     5
 66
     1
 10
0.0
 20
0.0
 30
0.0
  0
VERTEX
  8
DETAIL
  6
CONTINUOUS
 62
     5
 10
-417.90000000000782
 20
120.4315458300086
 30
0.0
  0
VERTEX
  8
DETAIL
  6
CONTINUOUS
 62
     5
 10
-417.20463211055301
 20
120.40500305724258
 30
0.0
  0
VERTEX
  8
DETAIL
  6
CONTINUOUS
 62
     5
 10
-416.51331294698122
 20
120.32527585326663
 30
0.0
  0
VERTEX
  8
DETAIL
  6
CONTINUOUS
 62
     5
 10
-415.83035191983453
 20
120.19178945839718
 30
0.0
  0
VERTEX
  8
DETAIL
  6
CONTINUOUS
 62
     5
 10
-415.16026936487401
 20
120.0037701183782
 30
0.0
  0
VERTEX
  8
DETAIL
  6
CONTINUOUS
 62
     5
 10
-414.50840061112802
 20
119.76008017660489
 30
0.0
  0
VERTEX
  8
DETAIL
  6
CONTINUOUS
 62
     5
 10
-413.88060829010698
 20
119.4594450000366
 30
0.0
  0
VERTEX
  8
DETAIL
  6
CONTINUOUS
 62
     5
 10
-413.28423791360785
 20
119.1005886775675
 30
0.0
  0
VERTEX
  8
DETAIL
  6
CONTINUOUS
 62
     5
 10
-412.72762736943133
 20
118.68238950231537
 30
0.0
  0
VERTEX
  8
DETAIL
  6
CONTINUOUS
 62
     5
 10
-412.22130491485115
 20
118.2046105900106
 30
0.0
  0
VERTEX
  8
DETAIL
  6
CONTINUOUS
 62
     5
 10
-411.77716633062875
 20
117.66816841078975
 30
0.0
  0
VERTEX
  8
DETAIL
  6
CONTINUOUS
 62
     5
 10
-411.40924892375961
 20
117.07704988535104
 30
0.0
  0
VERTEX
  8
DETAIL
  6
CONTINUOUS
 62
     5
 10
-411.13193284787332
 20
116.43817354105616
 30
0.0
  0
VERTEX
  8
DETAIL
  6
CONTINUOUS
 62
     5
 10
-410.95903363852756
 20
115.76287743291316
 30
0.0
  0
VERTEX
  8
DETAIL
  6
CONTINUOUS
 62
     5
 10
-410.90000000000782
 20
115.06921782116341
 30
0.0
  0
SEQEND
  8
DETAIL
  6
CONTINUOUS
 62
     5
  0
LINE
  8
BASIS
  6
CENTER
 62
     6
 10
-408.87525567626921
 20
153.13396900318821
 30
0.0
 11
-426.08021786546033
 21
153.13396900318961
 31
0.0
  0
LINE
  8
BASIS
  6
CENTER
 62
     6
 10
-406.3924776446911
 20
115.06921782116321
 30
0.0
 11
-428.028123199937
 21
115.0692178211648
 31
0.0
  0
CIRCLE
  8
FIX
  6
CONTINUOUS
 62
    11
 10
-199.00000000000091
 20
0.0
 30
0.0
 40
3.0
  0
LINE
  8
BASIS
  6
CENTER
 62
     6
 10
-199.00000000000091
 20
17.37665929415811
 30
0.0
 11
-199.00000000000091
 21
-10.72377994188286
 31
0.0
  0
CIRCLE
  8
FIX
  6
CONTINUOUS
 62
    11
 10
310.99999999999909
 20
0.0
 30
0.0
 40
3.0
  0
LINE
  8
BASIS
  6
CENTER
 62
     6
 10
310.99999999999909
 20
19.300333751006061
 30
0.0
 11
310.99999999999909
 21
-11.218988412266521
 31
0.0
  0
LINE
  8
OUTLINE
  6
CONTINUOUS
 62
     3
 10
368.35147131109898
 20
641.6485286889008
 30
0.0
 11
369.82447673379738
 21
640.17552326620046
 31
0.0
  0
LINE
  8
OUTLINE
  6
CONTINUOUS
 62
     3
 10
399.99999999999733
 20
12.400000000000089
 30
0.0
 11
399.99999999999909
 21
516.2000000000005
 31
0.0
  0
LINE
  8
OUTLINE
  6
CONTINUOUS
 62
     3
 10
399.99999999999909
 20
570.00000000000011
 30
0.0
 11
399.99999999999733
 21
631.35430572810014
 31
0.0
  0
LINE
  8
OUTLINE
  6
CONTINUOUS
 62
     3
 10
63.499999999999091
 20
642.00000000000068
 30
0.0
 11
63.499999999999091
 21
642.10000000000014
 31
0.0
  0
LINE
  8
OUTLINE
  6
CONTINUOUS
 62
     3
 10
-63.500000000000909
 20
642.00000000000068
 30
0.0
 11
-63.500000000000909
 21
642.10000000000014
 31
0.0
  0
LINE
  8
OUTLINE
  6
CONTINUOUS
 62
     3
 10
367.50294259609751
 20
642.00000000000068
 30
0.0
 11
-367.50294259610109
 21
642.00000000000068
 31
0.0
  0
LINE
  8
OUTLINE
  6
CONTINUOUS
 62
     3
 10
-400.00000000000267
 20
631.35430572810014
 30
0.0
 11
-400.0000000000008
 21
579.90000000000066
 31
0.0
  0
LINE
  8
OUTLINE
  6
CONTINUOUS
 62
     3
 10
-400.00000000000267
 20
40.600000000000591
 30
0.0
 11
-400.00000000000267
 21
12.400000000000089
 31
0.0
  0
LINE
  8
OUTLINE
  6
CONTINUOUS
 62
     3
 10
-368.35147131110261
 20
641.6485286889008
 30
0.0
 11
-369.82447673380102
 21
640.17552326620046
 31
0.0
  0
ARC
  8
OUTLINE
  6
CONTINUOUS
 62
     3
 10
-395.00000000000267
 20
631.35430563610021
 30
0.0
 40
5.0
 50
106.6238435244705
 51
179.99999894620129
  0
ARC
  8
OUTLINE
  6
CONTINUOUS
 62
     3
 10
394.99999999999721
 20
631.35430545310078
 30
0.0
 40
5.0
 50
0.0000031512345473
 51
73.376157075595913
  0
ARC
  8
OUTLINE
  6
CONTINUOUS
 62
     3
 10
-370.2487414215002
 20
640.59978671590011
 30
0.0
 40
0.6
 50
270.12210603621543
 51
315.00020574610159
  0
ARC
  8
OUTLINE
  6
CONTINUOUS
 62
     3
 10
370.2487414215002
 20
640.59978671590011
 30
0.0
 40
0.6
 50
224.99984611335691
 51
269.87789396378457
  0
ARC
  8
OUTLINE
  6
CONTINUOUS
 62
     3
 10
-367.50294372510052
 20
640.8000000000003
 30
0.0
 40
1.1999999999999991
 50
89.999889816300438
 51
134.9999282650837
  0
ARC
  8
OUTLINE
  6
CONTINUOUS
 62
     3
 10
367.5029391097969
 20
640.8000000000003
 30
0.0
 40
1.1999999999999991
 50
44.999903559879208
 51
89.999889816821579
  0
POLYLINE
  8
OUTLINE
  6
CONTINUOUS
 62
     3
 66
     1
 10
0.0
 20
0.0
 30
0.0
  0
VERTEX
  8
OUTLINE
  6
CONTINUOUS
 62
     3
 10
396.43043575859792
 20
636.14532373480074
 30
0.0
  0
VERTEX
  8
OUTLINE
  6
CONTINUOUS
 62
     3
 10
395.70255618923426
 20
636.35938600453096
 30
0.0
  0
VERTEX
  8
OUTLINE
  6
CONTINUOUS
 62
     3
 10
394.97287878761256
 20
636.56747121376327
 30
0.0
  0
VERTEX
  8
OUTLINE
  6
CONTINUOUS
 62
     3
 10
394.24147804388599
 20
636.7695601474021
 30
0.0
  0
VERTEX
  8
OUTLINE
  6
CONTINUOUS
 62
     3
 10
393.50842844820801
 20
636.96563359035122
 30
0.0
  0
VERTEX
  8
OUTLINE
  6
CONTINUOUS
 62
     3
 10
392.773804490732
 20
637.15567232751459
 30
0.0
  0
VERTEX
  8
OUTLINE
  6
CONTINUOUS
 62
     3
 10
392.03768066161138
 20
637.33965714379644
 30
0.0
  0
VERTEX
  8
OUTLINE
  6
CONTINUOUS
 62
     3
 10
391.30013145099929
 20
637.51756882410041
 30
0.0
  0
SEQEND
  8
OUTLINE
  6
CONTINUOUS
 62
     3
  0
POLYLINE
  8
OUTLINE
  6
CONTINUOUS
 62
     3
 66
     1
 10
0.0
 20
0.0
 30
0.0
  0
VERTEX
  8
OUTLINE
  6
CONTINUOUS
 62
     3
 10
391.30013145099929
 20
637.51756882410041
 30
0.0
  0
VERTEX
  8
OUTLINE
  6
CONTINUOUS
 62
     3
 10
391.05420760018967
 20
637.57546624870281
 30
0.0
  0
VERTEX
  8
OUTLINE
  6
CONTINUOUS
 62
     3
 10
390.80812386534546
 20
637.63269075500239
 30
0.0
  0
VERTEX
  8
OUTLINE
  6
CONTINUOUS
 62
     3
 10
390.56188300647221
 20
637.68924166781437
 30
0.0
  0
VERTEX
  8
OUTLINE
  6
CONTINUOUS
 62
     3
 10
390.31548778357541
 20
637.74511831195446
 30
0.0
  0
VERTEX
  8
OUTLINE
  6
CONTINUOUS
 62
     3
 10
390.06894095666064
 20
637.80032001223856
 30
0.0
  0
VERTEX
  8
OUTLINE
  6
CONTINUOUS
 62
     3
 10
389.8222452857334
 20
637.85484609348214
 30
0.0
  0
VERTEX
  8
OUTLINE
  6
CONTINUOUS
 62
     3
 10
389.57540353079918
 20
637.90869588050066
 30
0.0
  0
SEQEND
  8
OUTLINE
  6
CONTINUOUS
 62
     3
  0
POLYLINE
  8
OUTLINE
  6
CONTINUOUS
 62
     3
 66
     1
 10
0.0
 20
0.0
 30
0.0
  0
VERTEX
  8
OUTLINE
  6
CONTINUOUS
 62
     3
 10
389.57540353079912
 20
637.90869588050066
 30
0.0
  0
VERTEX
  8
OUTLINE
  6
CONTINUOUS
 62
     3
 10
389.08049359390316
 20
638.01453238075248
 30
0.0
  0
VERTEX
  8
OUTLINE
  6
CONTINUOUS
 62
     3
 10
388.58499160782355
 20
638.11765520493191
 30
0.0
  0
VERTEX
  8
OUTLINE
  6
CONTINUOUS
 62
     3
 10
388.08891987451801
 20
638.21805912498337
 30
0.0
  0
VERTEX
  8
OUTLINE
  6
CONTINUOUS
 62
     3
 10
387.59230069594469
 20
638.31573891285143
 30
0.0
  0
VERTEX
  8
OUTLINE
  6
CONTINUOUS
 62
     3
 10
387.09515637406162
 20
638.41068934048064
 30
0.0
  0
VERTEX
  8
OUTLINE
  6
CONTINUOUS
 62
     3
 10
386.59750921082644
 20
638.50290517981546
 30
0.0
  0
VERTEX
  8
OUTLINE
  6
CONTINUOUS
 62
     3
 10
386.09938150819738
 20
638.5923812028002
 30
0.0
  0
SEQEND
  8
OUTLINE
  6
CONTINUOUS
 62
     3
  0
POLYLINE
  8
OUTLINE
  6
CONTINUOUS
 62
     3
 66
     1
 10
0.0
 20
0.0
 30
0.0
  0
VERTEX
  8
OUTLINE
  6
CONTINUOUS
 62
     3
 10
386.09938150819738
 20
638.5923812028002
 30
0.0
  0
VERTEX
  8
OUTLINE
  6
CONTINUOUS
 62
     3
 10
385.83769593488319
 20
638.63825484601273
 30
0.0
  0
VERTEX
  8
OUTLINE
  6
CONTINUOUS
 62
     3
 10
385.57587843882624
 20
638.68337302471116
 30
0.0
  0
VERTEX
  8
OUTLINE
  6
CONTINUOUS
 62
     3
 10
385.31393110576221
 20
638.72773519721943
 30
0.0
  0
VERTEX
  8
OUTLINE
  6
CONTINUOUS
 62
     3
 10
385.05185605628174
 20
638.77134083693625
 30
0.0
  0
VERTEX
  8
OUTLINE
  6
CONTINUOUS
 62
     3
 10
384.78965578597621
 20
638.81418957944175
 30
0.0
  0
VERTEX
  8
OUTLINE
  6
CONTINUOUS
 62
     3
 10
384.52733301876907
 20
638.85628115906673
 30
0.0
  0
VERTEX
  8
OUTLINE
  6
CONTINUOUS
 62
     3
 10
384.26489048182259
 20
638.89761531154261
 30
0.0
  0
VERTEX
  8
OUTLINE
  6
CONTINUOUS
 62
     3
 10
384.00233090229898
 20
638.9381917726007
 30
0.0
  0
SEQEND
  8
OUTLINE
  6
CONTINUOUS
 62
     3
  0
POLYLINE
  8
OUTLINE
  6
CONTINUOUS
 62
     3
 66
     1
 10
0.0
 20
0.0
 30
0.0
  0
VERTEX
  8
OUTLINE
  6
CONTINUOUS
 62
     3
 10
384.00233090229898
 20
638.9381917726007
 30
0.0
  0
VERTEX
  8
OUTLINE
  6
CONTINUOUS
 62
     3
 10
383.55227747996457
 20
639.00594138529652
 30
0.0
  0
VERTEX
  8
OUTLINE
  6
CONTINUOUS
 62
     3
 10
383.10188107173957
 20
639.07146836042477
 30
0.0
  0
VERTEX
  8
OUTLINE
  6
CONTINUOUS
 62
     3
 10
382.65115824846242
 20
639.13477103742116
 30
0.0
  0
VERTEX
  8
OUTLINE
  6
CONTINUOUS
 62
     3
 10
382.20012558097136
 20
639.19584775572116
 30
0.0
  0
VERTEX
  8
OUTLINE
  6
CONTINUOUS
 62
     3
 10
381.74879964010489
 20
639.25469685476071
 30
0.0
  0
VERTEX
  8
OUTLINE
  6
CONTINUOUS
 62
     3
 10
381.2971969967013
 20
639.31131667397506
 30
0.0
  0
VERTEX
  8
OUTLINE
  6
CONTINUOUS
 62
     3
 10
380.84533422159888
 20
639.36570555279991
 30
0.0
  0
SEQEND
  8
OUTLINE
  6
CONTINUOUS
 62
     3
  0
POLYLINE
  8
OUTLINE
  6
CONTINUOUS
 62
     3
 66
     1
 10
0.0
 20
0.0
 30
0.0
  0
VERTEX
  8
OUTLINE
  6
CONTINUOUS
 62
     3
 10
380.84533422159888
 20
639.36570555279991
 30
0.0
  0
VERTEX
  8
OUTLINE
  6
CONTINUOUS
 62
     3
 10
380.5223331153498
 20
639.40319855021482
 30
0.0
  0
VERTEX
  8
OUTLINE
  6
CONTINUOUS
 62
     3
 10
380.1991968538992
 20
639.43955343319385
 30
0.0
  0
VERTEX
  8
OUTLINE
  6
CONTINUOUS
 62
     3
 10
379.87593146972068
 20
639.47476965743829
 30
0.0
  0
VERTEX
  8
OUTLINE
  6
CONTINUOUS
 62
     3
 10
379.55254299528781
 20
639.50884667865
 30
0.0
  0
VERTEX
  8
OUTLINE
  6
CONTINUOUS
 62
     3
 10
379.22903746307389
 20
639.54178395253007
 30
0.0
  0
VERTEX
  8
OUTLINE
  6
CONTINUOUS
 62
     3
 10
378.90542090555249
 20
639.5735809347799
 30
0.0
  0
VERTEX
  8
OUTLINE
  6
CONTINUOUS
 62
     3
 10
378.58169935519709
 20
639.60423708110079
 30
0.0
  0
SEQEND
  8
OUTLINE
  6
CONTINUOUS
 62
     3
  0
POLYLINE
  8
OUTLINE
  6
CONTINUOUS
 62
     3
 66
     1
 10
0.0
 20
0.0
 30
0.0
  0
VERTEX
  8
OUTLINE
  6
CONTINUOUS
 62
     3
 10
378.58169935519709
 20
639.60423708110079
 30
0.0
  0
VERTEX
  8
OUTLINE
  6
CONTINUOUS
 62
     3
 10
378.14988402722997
 20
639.64333935184436
 30
0.0
  0
VERTEX
  8
OUTLINE
  6
CONTINUOUS
 62
     3
 10
377.71787786023719
 20
639.68041372052312
 30
0.0
  0
VERTEX
  8
OUTLINE
  6
CONTINUOUS
 62
     3
 10
377.28569515975062
 20
639.71545903169306
 30
0.0
  0
VERTEX
  8
OUTLINE
  6
CONTINUOUS
 62
     3
 10
376.8533502313017
 20
639.74847412990982
 30
0.0
  0
VERTEX
  8
OUTLINE
  6
CONTINUOUS
 62
     3
 10
376.42085738042215
 20
639.77945785972963
 30
0.0
  0
VERTEX
  8
OUTLINE
  6
CONTINUOUS
 62
     3
 10
375.98823091264342
 20
639.80840906570779
 30
0.0
  0
VERTEX
  8
OUTLINE
  6
CONTINUOUS
 62
     3
 10
375.55548513349731
 20
639.83532659240029
 30
0.0
  0
SEQEND
  8
OUTLINE
  6
CONTINUOUS
 62
     3
  0
POLYLINE
  8
OUTLINE
  6
CONTINUOUS
 62
     3
 66
     1
 10
0.0
 20
0.0
 30
0.0
  0
VERTEX
  8
OUTLINE
  6
CONTINUOUS
 62
     3
 10
375.55548513349731
 20
639.83532659240029
 30
0.0
  0
VERTEX
  8
OUTLINE
  6
CONTINUOUS
 62
     3
 10
375.22069594859437
 20
639.85475105118712
 30
0.0
  0
VERTEX
  8
OUTLINE
  6
CONTINUOUS
 62
     3
 10
374.88583284281822
 20
639.87295889551035
 30
0.0
  0
VERTEX
  8
OUTLINE
  6
CONTINUOUS
 62
     3
 10
374.55090244978203
 20
639.88994965350525
 30
0.0
  0
VERTEX
  8
OUTLINE
  6
CONTINUOUS
 62
     3
 10
374.21591140309897
 20
639.90572285330666
 30
0.0
  0
VERTEX
  8
OUTLINE
  6
CONTINUOUS
 62
     3
 10
373.88086633638198
 20
639.92027802304972
 30
0.0
  0
VERTEX
  8
OUTLINE
  6
CONTINUOUS
 62
     3
 10
373.54577388324429
 20
639.93361469086915
 30
0.0
  0
VERTEX
  8
OUTLINE
  6
CONTINUOUS
 62
     3
 10
373.21064067729912
 20
639.94573238490034
 30
0.0
  0
SEQEND
  8
OUTLINE
  6
CONTINUOUS
 62
     3
  0
POLYLINE
  8
OUTLINE
  6
CONTINUOUS
 62
     3
 66
     1
 10
0.0
 20
0.0
 30
0.0
  0
VERTEX
  8
OUTLINE
  6
CONTINUOUS
 62
     3
 10
373.21064067729912
 20
639.94573238490034
 30
0.0
  0
VERTEX
  8
OUTLINE
  6
CONTINUOUS
 62
     3
 10
372.78745592441942
 20
639.9592902475614
 30
0.0
  0
VERTEX
  8
OUTLINE
  6
CONTINUOUS
 62
     3
 10
372.36420216769483
 20
639.97090428238573
 30
0.0
  0
VERTEX
  8
OUTLINE
  6
CONTINUOUS
 62
     3
 10
371.94089281431957
 20
639.98057366776334
 30
0.0
  0
VERTEX
  8
OUTLINE
  6
CONTINUOUS
 62
     3
 10
371.51754127148797
 20
639.98829758208387
 30
0.0
  0
VERTEX
  8
OUTLINE
  6
CONTINUOUS
 62
     3
 10
371.0941609463942
 20
639.99407520373711
 30
0.0
  0
VERTEX
  8
OUTLINE
  6
CONTINUOUS
 62
     3
 10
370.67076524623269
 20
639.99790571111271
 30
0.0
  0
VERTEX
  8
OUTLINE
  6
CONTINUOUS
 62
     3
 10
370.24736757819761
 20
639.99978828260066
 30
0.0
  0
SEQEND
  8
OUTLINE
  6
CONTINUOUS
 62
     3
  0
POLYLINE
  8
OUTLINE
  6
CONTINUOUS
 62
     3
 66
     1
 10
0.0
 20
0.0
 30
0.0
  0
VERTEX
  8
OUTLINE
  6
CONTINUOUS
 62
     3
 10
-396.43043575860162
 20
636.14532373480074
 30
0.0
  0
VERTEX
  8
OUTLINE
  6
CONTINUOUS
 62
     3
 10
-395.70255618858778
 20
636.35938600471547
 30
0.0
  0
VERTEX
  8
OUTLINE
  6
CONTINUOUS
 62
     3
 10
-394.97287878631357
 20
636.56747121412536
 30
0.0
  0
VERTEX
  8
OUTLINE
  6
CONTINUOUS
 62
     3
 10
-394.24147804193228
 20
636.76956014793336
 30
0.0
  0
VERTEX
  8
OUTLINE
  6
CONTINUOUS
 62
     3
 10
-393.50842844559719
 20
636.96563359104209
 30
0.0
  0
VERTEX
  8
OUTLINE
  6
CONTINUOUS
 62
     3
 10
-392.77380448746146
 20
637.15567232835451
 30
0.0
  0
VERTEX
  8
OUTLINE
  6
CONTINUOUS
 62
     3
 10
-392.03768065767827
 20
637.33965714477313
 30
0.0
  0
VERTEX
  8
OUTLINE
  6
CONTINUOUS
 62
     3
 10
-391.30013144640088
 20
637.51756882520078
 30
0.0
  0
SEQEND
  8
OUTLINE
  6
CONTINUOUS
 62
     3
  0
POLYLINE
  8
OUTLINE
  6
CONTINUOUS
 62
     3
 66
     1
 10
0.0
 20
0.0
 30
0.0
  0
VERTEX
  8
OUTLINE
  6
CONTINUOUS
 62
     3
 10
-391.30013144640088
 20
637.51756882520078
 30
0.0
  0
VERTEX
  8
OUTLINE
  6
CONTINUOUS
 62
     3
 10
-391.05494151499613
 20
637.57529452128745
 30
0.0
  0
VERTEX
  8
OUTLINE
  6
CONTINUOUS
 62
     3
 10
-390.80959265355136
 20
637.63235130812825
 30
0.0
  0
VERTEX
  8
OUTLINE
  6
CONTINUOUS
 62
     3
 10
-390.56408759743164
 20
637.68873851653882
 30
0.0
  0
VERTEX
  8
OUTLINE
  6
CONTINUOUS
 62
     3
 10
-390.31842908200161
 20
637.74445547733535
 30
0.0
  0
VERTEX
  8
OUTLINE
  6
CONTINUOUS
 62
     3
 10
-390.07261984262658
 20
637.79950152133392
 30
0.0
  0
VERTEX
  8
OUTLINE
  6
CONTINUOUS
 62
     3
 10
-389.82666261467119
 20
637.85387597935051
 30
0.0
  0
VERTEX
  8
OUTLINE
  6
CONTINUOUS
 62
     3
 10
-389.58056013350051
 20
637.90757818220095
 30
0.0
  0
SEQEND
  8
OUTLINE
  6
CONTINUOUS
 62
     3
  0
POLYLINE
  8
OUTLINE
  6
CONTINUOUS
 62
     3
 66
     1
 10
0.0
 20
0.0
 30
0.0
  0
VERTEX
  8
OUTLINE
  6
CONTINUOUS
 62
     3
 10
-389.58056013350051
 20
637.90757818220095
 30
0.0
  0
VERTEX
  8
OUTLINE
  6
CONTINUOUS
 62
     3
 10
-389.08491881487782
 20
638.01359861827848
 30
0.0
  0
VERTEX
  8
OUTLINE
  6
CONTINUOUS
 62
     3
 10
-388.58868352205042
 20
638.11689732944512
 30
0.0
  0
VERTEX
  8
OUTLINE
  6
CONTINUOUS
 62
     3
 10
-388.09187665663427
 20
638.21746906405485
 30
0.0
  0
VERTEX
  8
OUTLINE
  6
CONTINUOUS
 62
     3
 10
-387.59452062024513
 20
638.31530857046141
 30
0.0
  0
VERTEX
  8
OUTLINE
  6
CONTINUOUS
 62
     3
 10
-387.0966378144991
 20
638.41041059701854
 30
0.0
  0
VERTEX
  8
OUTLINE
  6
CONTINUOUS
 62
     3
 10
-386.5982506410121
 20
638.50276989208055
 30
0.0
  0
VERTEX
  8
OUTLINE
  6
CONTINUOUS
 62
     3
 10
-386.09938150139988
 20
638.59238120400073
 30
0.0
  0
SEQEND
  8
OUTLINE
  6
CONTINUOUS
 62
     3
  0
POLYLINE
  8
OUTLINE
  6
CONTINUOUS
 62
     3
 66
     1
 10
0.0
 20
0.0
 30
0.0
  0
VERTEX
  8
OUTLINE
  6
CONTINUOUS
 62
     3
 10
-386.09938150139988
 20
638.59238120400073
 30
0.0
  0
VERTEX
  8
OUTLINE
  6
CONTINUOUS
 62
     3
 10
-385.83793108547422
 20
638.63821397334209
 30
0.0
  0
VERTEX
  8
OUTLINE
  6
CONTINUOUS
 62
     3
 10
-385.5763489816818
 20
638.68329263549253
 30
0.0
  0
VERTEX
  8
OUTLINE
  6
CONTINUOUS
 62
     3
 10
-385.31463727191408
 20
638.72761664996244
 30
0.0
  0
VERTEX
  8
OUTLINE
  6
CONTINUOUS
 62
     3
 10
-385.05279807223241
 20
638.7711854911247
 30
0.0
  0
VERTEX
  8
OUTLINE
  6
CONTINUOUS
 62
     3
 10
-384.7908338702282
 20
638.8139987949412
 30
0.0
  0
VERTEX
  8
OUTLINE
  6
CONTINUOUS
 62
     3
 10
-384.5287473815298
 20
638.85605629655447
 30
0.0
  0
VERTEX
  8
OUTLINE
  6
CONTINUOUS
 62
     3
 10
-384.26654132507508
 20
638.89735773254699
 30
0.0
  0
VERTEX
  8
OUTLINE
  6
CONTINUOUS
 62
     3
 10
-384.00421841980187
 20
638.93790283950034
 30
0.0
  0
SEQEND
  8
OUTLINE
  6
CONTINUOUS
 62
     3
  0
POLYLINE
  8
OUTLINE
  6
CONTINUOUS
 62
     3
 66
     1
 10
0.0
 20
0.0
 30
0.0
  0
VERTEX
  8
OUTLINE
  6
CONTINUOUS
 62
     3
 10
-384.00421841980187
 20
638.93790283950034
 30
0.0
  0
VERTEX
  8
OUTLINE
  6
CONTINUOUS
 62
     3
 10
-383.55389657992606
 20
639.00570172486323
 30
0.0
  0
VERTEX
  8
OUTLINE
  6
CONTINUOUS
 62
     3
 10
-383.1032312947388
 20
639.07127531229105
 30
0.0
  0
VERTEX
  8
OUTLINE
  6
CONTINUOUS
 62
     3
 10
-382.65223916490788
 20
639.13462193816918
 30
0.0
  0
VERTEX
  8
OUTLINE
  6
CONTINUOUS
 62
     3
 10
-382.20093679110113
 20
639.19573993888343
 30
0.0
  0
VERTEX
  8
OUTLINE
  6
CONTINUOUS
 62
     3
 10
-381.74934077398615
 20
639.25462765081977
 30
0.0
  0
VERTEX
  8
OUTLINE
  6
CONTINUOUS
 62
     3
 10
-381.29746771423066
 20
639.31128341036356
 30
0.0
  0
VERTEX
  8
OUTLINE
  6
CONTINUOUS
 62
     3
 10
-380.84533421250222
 20
639.36570555390028
 30
0.0
  0
SEQEND
  8
OUTLINE
  6
CONTINUOUS
 62
     3
  0
POLYLINE
  8
OUTLINE
  6
CONTINUOUS
 62
     3
 66
     1
 10
0.0
 20
0.0
 30
0.0
  0
VERTEX
  8
OUTLINE
  6
CONTINUOUS
 62
     3
 10
-380.84533421250222
 20
639.36570555390028
 30
0.0
  0
VERTEX
  8
OUTLINE
  6
CONTINUOUS
 62
     3
 10
-380.52247112722875
 20
639.40318277662436
 30
0.0
  0
VERTEX
  8
OUTLINE
  6
CONTINUOUS
 62
     3
 10
-380.19947300263698
 20
639.43952285710873
 30
0.0
  0
VERTEX
  8
OUTLINE
  6
CONTINUOUS
 62
     3
 10
-379.87634586347241
 20
639.47472525174089
 30
0.0
  0
VERTEX
  8
OUTLINE
  6
CONTINUOUS
 62
     3
 10
-379.55309573448102
 20
639.50878941690848
 30
0.0
  0
VERTEX
  8
OUTLINE
  6
CONTINUOUS
 62
     3
 10
-379.22972864040798
 20
639.54171480899947
 30
0.0
  0
VERTEX
  8
OUTLINE
  6
CONTINUOUS
 62
     3
 10
-378.90625060599916
 20
639.57350088440114
 30
0.0
  0
VERTEX
  8
OUTLINE
  6
CONTINUOUS
 62
     3
 10
-378.58266765600001
 20
639.60414709950123
 30
0.0
  0
SEQEND
  8
OUTLINE
  6
CONTINUOUS
 62
     3
  0
POLYLINE
  8
OUTLINE
  6
CONTINUOUS
 62
     3
 66
     1
 10
0.0
 20
0.0
 30
0.0
  0
VERTEX
  8
OUTLINE
  6
CONTINUOUS
 62
     3
 10
-378.58266765600001
 20
639.60414709950123
 30
0.0
  0
VERTEX
  8
OUTLINE
  6
CONTINUOUS
 62
     3
 10
-378.15071436236832
 20
639.64326612386117
 30
0.0
  0
VERTEX
  8
OUTLINE
  6
CONTINUOUS
 62
     3
 10
-377.71857008524552
 20
639.68035594837295
 30
0.0
  0
VERTEX
  8
OUTLINE
  6
CONTINUOUS
 62
     3
 10
-377.28624914391543
 20
639.71541541645922
 30
0.0
  0
VERTEX
  8
OUTLINE
  6
CONTINUOUS
 62
     3
 10
-376.8537658576621
 20
639.74844337154241
 30
0.0
  0
VERTEX
  8
OUTLINE
  6
CONTINUOUS
 62
     3
 10
-376.42113454576941
 20
639.77943865704538
 30
0.0
  0
VERTEX
  8
OUTLINE
  6
CONTINUOUS
 62
     3
 10
-375.98836952752117
 20
639.80840011639066
 30
0.0
  0
VERTEX
  8
OUTLINE
  6
CONTINUOUS
 62
     3
 10
-375.55548512220139
 20
639.83532659300067
 30
0.0
  0
SEQEND
  8
OUTLINE
  6
CONTINUOUS
 62
     3
  0
POLYLINE
  8
OUTLINE
  6
CONTINUOUS
 62
     3
 66
     1
 10
0.0
 20
0.0
 30
0.0
  0
VERTEX
  8
OUTLINE
  6
CONTINUOUS
 62
     3
 10
-375.55548512220139
 20
639.83532659300067
 30
0.0
  0
VERTEX
  8
OUTLINE
  6
CONTINUOUS
 62
     3
 10
-375.22045913666187
 20
639.85476435880139
 30
0.0
  0
VERTEX
  8
OUTLINE
  6
CONTINUOUS
 62
     3
 10
-374.88535912485105
 20
639.87298378852392
 30
0.0
  0
VERTEX
  8
OUTLINE
  6
CONTINUOUS
 62
     3
 10
-374.55019173447391
 20
639.88998440932096
 30
0.0
  0
VERTEX
  8
OUTLINE
  6
CONTINUOUS
 62
     3
 10
-374.2149636132354
 20
639.90576574834472
 30
0.0
  0
VERTEX
  8
OUTLINE
  6
CONTINUOUS
 62
     3
 10
-373.87968140884067
 20
639.92032733274766
 30
0.0
  0
VERTEX
  8
OUTLINE
  6
CONTINUOUS
 62
     3
 10
-373.54435176899426
 20
639.93366868968201
 30
0.0
  0
VERTEX
  8
OUTLINE
  6
CONTINUOUS
 62
     3
 10
-373.2089813414014
 20
639.94578934630022
 30
0.0
  0
SEQEND
  8
OUTLINE
  6
CONTINUOUS
 62
     3
  0
POLYLINE
  8
OUTLINE
  6
CONTINUOUS
 62
     3
 66
     1
 10
0.0
 20
0.0
 30
0.0
  0
VERTEX
  8
OUTLINE
  6
CONTINUOUS
 62
     3
 10
-373.2089813414014
 20
639.94578934630022
 30
0.0
  0
VERTEX
  8
OUTLINE
  6
CONTINUOUS
 62
     3
 10
-372.78603340858916
 20
639.95933254136378
 30
0.0
  0
VERTEX
  8
OUTLINE
  6
CONTINUOUS
 62
     3
 10
-372.36301658540054
 20
639.97093408297667
 30
0.0
  0
VERTEX
  8
OUTLINE
  6
CONTINUOUS
 62
     3
 10
-371.93994425653267
 20
639.98059315094804
 30
0.0
  0
VERTEX
  8
OUTLINE
  6
CONTINUOUS
 62
     3
 10
-371.51682980668204
 20
639.98830892508727
 30
0.0
  0
VERTEX
  8
OUTLINE
  6
CONTINUOUS
 62
     3
 10
-371.09368662054538
 20
639.99408058520294
 30
0.0
  0
VERTEX
  8
OUTLINE
  6
CONTINUOUS
 62
     3
 10
-370.67052808281949
 20
639.99790731110443
 30
0.0
  0
VERTEX
  8
OUTLINE
  6
CONTINUOUS
 62
     3
 10
-370.24736757820119
 20
639.99978828260066
 30
0.0
  0
SEQEND
  8
OUTLINE
  6
CONTINUOUS
 62
     3
  0
LINE
  8
OUTLINE
  6
CONTINUOUS
 62
     3
 10
401.99999999999898
 20
568.53130328390102
 30
0.0
 11
401.99999999999898
 21
566.10000000000048
 31
0.0
  0
LINE
  8
OUTLINE
  6
CONTINUOUS
 62
     3
 10
401.99999999999898
 20
552.70000000000005
 30
0.0
 11
401.99999999999898
 21
517.66869671610016
 31
0.0
  0
LINE
  8
OUTLINE
  6
CONTINUOUS
 62
     3
 10
401.99999999999898
 20
566.10000000000014
 30
0.0
 11
411.33504982289833
 21
561.0735935464005
 31
0.0
  0
LINE
  8
OUTLINE
  6
CONTINUOUS
 62
     3
 10
399.99999999999733
 20
569.99999999999966
 30
0.0
 11
401.36650122669829
 21
569.46172085180001
 31
0.0
  0
LINE
  8
OUTLINE
  6
CONTINUOUS
 62
     3
 10
293.35795289339791
 20
12.400000000000089
 30
0.0
 11
291.1985988382994
 21
4.3411809549002101
 31
0.0
  0
LINE
  8
OUTLINE
  6
CONTINUOUS
 62
     3
 10
334.49999999999909
 20
0.0
 30
0.0
 11
287.49999999999733
 21
0.0
 31
0.0
  0
LINE
  8
OUTLINE
  6
CONTINUOUS
 62
     3
 10
-175.50000000000091
 20
0.0
 30
0.0
 11
-222.5000000000027
 21
0.0
 31
0.0
  0
LINE
  8
OUTLINE
  6
CONTINUOUS
 62
     3
 10
334.49999999999909
 20
3.600000000000136
 30
0.0
 11
331.7673269880006
 21
3.600000000000136
 31
0.0
  0
LINE
  8
OUTLINE
  6
CONTINUOUS
 62
     3
 10
290.2326730119994
 20
3.600000000000136
 30
0.0
 11
287.49999999999733
 21
3.600000000000136
 31
0.0
  0
LINE
  8
OUTLINE
  6
CONTINUOUS
 62
     3
 10
-175.50000000000091
 20
3.600000000000136
 30
0.0
 11
-178.2326730119994
 21
3.600000000000136
 31
0.0
  0
LINE
  8
OUTLINE
  6
CONTINUOUS
 62
     3
 10
-219.7673269880006
 20
3.600000000000136
 30
0.0
 11
-222.5000000000027
 21
3.600000000000136
 31
0.0
  0
LINE
  8
OUTLINE
  6
CONTINUOUS
 62
     3
 10
-217.8210235533015
 20
8.0000000000006821
 30
0.0
 11
-375.84314575050212
 21
8.0000000000006821
 31
0.0
  0
LINE
  8
OUTLINE
  6
CONTINUOUS
 62
     3
 10
399.99999999999733
 20
12.400000000000089
 30
0.0
 11
328.64204710659851
 21
12.40000000000032
 31
0.0
  0
LINE
  8
OUTLINE
  6
CONTINUOUS
 62
     3
 10
293.35795289339791
 20
12.40000000000032
 30
0.0
 11
-181.35795289334689
 21
12.400000000000089
 31
0.0
  0
LINE
  8
OUTLINE
  6
CONTINUOUS
 62
     3
 10
-382.54677977373012
 20
12.400000000000089
 30
0.0
 11
-400.00000000000267
 21
12.400000000000089
 31
0.0
  0
LINE
  8
OUTLINE
  6
CONTINUOUS
 62
     3
 10
330.80140116169878
 20
4.3411809549002101
 30
0.0
 11
328.64204710659851
 21
12.400000000000089
 31
0.0
  0
LINE
  8
OUTLINE
  6
CONTINUOUS
 62
     3
 10
-470.9507381064895
 20
147.04418186838089
 30
0.0
 11
-471.05073810648798
 21
147.04418186838089
 31
0.0
  0
LINE
  8
OUTLINE
  6
CONTINUOUS
 62
     3
 10
411.13679034279897
 20
560.02364433700006
 30
0.0
 11
401.99999999999898
 21
552.69999999999948
 31
0.0
  0
LINE
  8
OUTLINE
  6
CONTINUOUS
 62
     3
 10
399.99999999999733
 20
516.20000000000005
 30
0.0
 11
401.36650122669829
 21
516.73827914810113
 31
0.0
  0
LINE
  8
OUTLINE
  6
CONTINUOUS
 62
     3
 10
-464.66499915246908
 20
241.436436562349
 30
0.0
 11
-421.33498192202478
 21
258.50458442265108
 31
0.0
  0
LINE
  8
OUTLINE
  6
CONTINUOUS
 62
     3
 10
-217.82102355329059
 20
8.0000000000009095
 30
0.0
 11
-218.8014011617006
 21
4.3411809549002101
 31
0.0
  0
LINE
  8
OUTLINE
  6
CONTINUOUS
 62
     3
 10
-179.19859883830119
 20
4.3411809549002101
 30
0.0
 11
-181.35795289334689
 21
12.400000000000089
 31
0.0
  0
LINE
  8
OUTLINE
  6
CONTINUOUS
 62
     3
 10
-413.0995036793019
 20
504.18697314650012
 30
0.0
 11
-411.7943399867026
 21
504.70109079750063
 31
0.0
  0
LINE
  8
OUTLINE
  6
CONTINUOUS
 62
     3
 10
-411.6814409945481
 20
506.11605905416462
 30
0.0
 11
-411.66077046028198
 21
506.54520920816611
 31
0.0
  0
LINE
  8
OUTLINE
  6
CONTINUOUS
 62
     3
 10
-411.66077046028198
 20
506.54520920816611
 30
0.0
 11
-411.64453556993152
 21
506.99311220500272
 31
0.0
  0
LINE
  8
OUTLINE
  6
CONTINUOUS
 62
     3
 10
-411.64453556993152
 20
506.99311220500272
 30
0.0
 11
-411.63238469890069
 21
507.48735388799992
 31
0.0
  0
LINE
  8
OUTLINE
  6
CONTINUOUS
 62
     3
 10
-411.6333216616012
 20
507.43738770659979
 30
0.0
 11
-411.62657039000158
 21
507.95358527260089
 31
0.0
  0
LINE
  8
OUTLINE
  6
CONTINUOUS
 62
     3
 10
-411.62664837640199
 20
507.93308313560033
 30
0.0
 11
-411.62540437799993
 21
508.2601225180008
 31
0.0
  0
LINE
  8
OUTLINE
  6
CONTINUOUS
 62
     3
 10
-411.62540619110121
 20
508.2601225180008
 30
0.0
 11
-411.62540619110121
 21
528.39567868890094
 31
0.0
  0
LINE
  8
OUTLINE
  6
CONTINUOUS
 62
     3
 10
-415.00000000000267
 20
267.83593432740082
 30
0.0
 11
-415.00000000000267
 21
501.39572087550067
 31
0.0
  0
LINE
  8
OUTLINE
  6
CONTINUOUS
 62
     3
 10
-415.00000000000267
 20
533.38582369610106
 30
0.0
 11
-415.00000000000267
 21
568.93150086450055
 31
0.0
  0
LINE
  8
OUTLINE
  6
CONTINUOUS
 62
     3
 10
-411.62540228650232
 20
528.39567868880079
 30
0.0
 11
-411.62687026650292
 21
528.74405116400135
 31
0.0
  0
LINE
  8
OUTLINE
  6
CONTINUOUS
 62
     3
 10
-411.62673222390089
 20
528.72728461359998
 30
0.0
 11
-411.63472611946139
 21
529.27013163745335
 31
0.0
  0
LINE
  8
OUTLINE
  6
CONTINUOUS
 62
     3
 10
-411.63472611946139
 20
529.27013163745335
 30
0.0
 11
-411.6485598520257
 21
529.7708043944632
 31
0.0
  0
LINE
  8
OUTLINE
  6
CONTINUOUS
 62
     3
 10
-411.6485598520257
 20
529.7708043944632
 30
0.0
 11
-411.6741104429957
 21
530.40357655877165
 31
0.0
  0
LINE
  8
OUTLINE
  6
CONTINUOUS
 62
     3
 10
-464.66500591560089
 20
66.072223235800024
 30
0.0
 11
-400.00000000000267
 21
40.600000000000591
 31
0.0
  0
LINE
  8
OUTLINE
  6
CONTINUOUS
 62
     3
 10
-470.99998685461918
 20
232.13226089458499
 30
0.0
 11
-470.99998685461918
 21
75.360186996067796
 31
0.0
  0
ARC
  8
OUTLINE
  6
CONTINUOUS
 62
     3
 10
-460.99998685461918
 20
232.13226089458499
 30
0.0
 40
10.0
 50
111.5000001884349
 51
180.0
  0
LINE
  8
OUTLINE
  6
CONTINUOUS
 62
     3
 10
-412.99999999010191
 20
572.39444650620021
 30
0.0
 11
-400.00000000000267
 21
579.90000000000032
 31
0.0
  0
LINE
  8
OUTLINE
  6
CONTINUOUS
 62
     3
 10
-381.82548339960249
 20
11.828427124700051
 30
0.0
 11
-379.52010101270122
 21
9.5230447378003191
 31
0.0
  0
ARC
  8
OUTLINE
  6
CONTINUOUS
 62
     3
 10
-178.2326730119994
 20
4.6000000000003629
 30
0.0
 40
1.0
 50
194.99999999998181
 51
270.0
  0
ARC
  8
OUTLINE
  6
CONTINUOUS
 62
     3
 10
-219.7673269880006
 20
4.6000000000003629
 30
0.0
 40
1.0
 50
270.0
 51
345.00000000001802
  0
ARC
  8
OUTLINE
  6
CONTINUOUS
 62
     3
 10
331.7673269880006
 20
4.6000000000003629
 30
0.0
 40
1.0
 50
194.99999999998181
 51
270.0
  0
ARC
  8
OUTLINE
  6
CONTINUOUS
 62
     3
 10
290.2326730119994
 20
4.6000000000003629
 30
0.0
 40
1.0
 50
270.0
 51
345.00000000001802
  0
ARC
  8
OUTLINE
  6
CONTINUOUS
 62
     3
 10
-222.5000000000027
 20
1.800000000000636
 30
0.0
 40
1.8
 50
90.0
 51
270.0
  0
ARC
  8
OUTLINE
  6
CONTINUOUS
 62
     3
 10
-175.50000000000091
 20
1.800000000000636
 30
0.0
 40
1.8
 50
270.0
 51
90.0
  0
ARC
  8
OUTLINE
  6
CONTINUOUS
 62
     3
 10
290.2326730119994
 20
4.6000000000003629
 30
0.0
 40
1.0
 50
270.0
 51
345.00000000001802
  0
ARC
  8
OUTLINE
  6
CONTINUOUS
 62
     3
 10
331.7673269880006
 20
4.6000000000003629
 30
0.0
 40
1.0
 50
194.99999999998181
 51
270.0
  0
ARC
  8
OUTLINE
  6
CONTINUOUS
 62
     3
 10
287.49999999999733
 20
1.800000000000636
 30
0.0
 40
1.8
 50
90.0
 51
270.0
  0
ARC
  8
OUTLINE
  6
CONTINUOUS
 62
     3
 10
334.49999999999909
 20
1.800000000000636
 30
0.0
 40
1.8
 50
270.0
 51
90.0
  0
ARC
  8
OUTLINE
  6
CONTINUOUS
 62
     3
 10
400.99999999999898
 20
568.53130328390102
 30
0.0
 40
1.0
 50
0.0
 51
68.499999999971564
  0
ARC
  8
OUTLINE
  6
CONTINUOUS
 62
     3
 10
400.99999999999898
 20
517.66869671610016
 30
0.0
 40
1.0
 50
291.50000000002842
 51
0.0
  0
ARC
  8
OUTLINE
  6
CONTINUOUS
 62
     3
 10
411.09800571839781
 20
560.63335486970004
 30
0.0
 40
0.5
 50
323.65605462482131
 51
61.700000000048881
  0
ARC
  8
OUTLINE
  6
CONTINUOUS
 62
     3
 10
-375.84314575050212
 20
13.2000000000005
 30
0.0
 40
5.2000000000000002
 50
225.0
 51
270.0
  0
ARC
  8
OUTLINE
  6
CONTINUOUS
 62
     3
 10
-384.65391052430192
 20
9.0000000000009095
 30
0.0
 40
4.0
 50
45.0
 51
58.346124010607483
  0
ARC
  8
OUTLINE
  6
CONTINUOUS
 62
     3
 10
-411.99999999920232
 20
533.38582336230024
 30
0.0
 40
3.0
 50
180.0
 51
276.23633857319822
  0
ARC
  8
OUTLINE
  6
CONTINUOUS
 62
     3
 10
-411.99999999910227
 20
501.39572044260029
 30
0.0
 40
3.0
 50
111.50000000002839
 51
179.9999999998046
  0
ARC
  8
OUTLINE
  6
CONTINUOUS
 62
     3
 10
-410.99999999630109
 20
568.93034488750004
 30
0.0
 40
4.0
 50
119.9999999999973
 51
179.99999999843669
  0
ARC
  8
OUTLINE
  6
CONTINUOUS
 62
     3
 10
-461.00000000000091
 20
75.376401417599936
 30
0.0
 40
10.0
 50
180.09290183281269
 51
248.49999999997161
  0
ARC
  8
OUTLINE
  6
CONTINUOUS
 62
     3
 10
-424.99999433580058
 20
267.80875988020063
 30
0.0
 40
9.9999998468999998
 50
291.50000124787039
 51
0.0
  0
POLYLINE
  8
OUTLINE
  6
CONTINUOUS
 62
     3
 66
     1
 10
0.0
 20
0.0
 30
0.0
  0
VERTEX
  8
OUTLINE
  6
CONTINUOUS
 62
     3
 10
411.13678188109861
 20
560.02363755459976
 30
0.0
  0
VERTEX
  8
OUTLINE
  6
CONTINUOUS
 62
     3
 10
411.17834110463934
 20
560.05713939092573
 30
0.0
  0
VERTEX
  8
OUTLINE
  6
CONTINUOUS
 62
     3
 10
411.21969642390445
 20
560.09089342872585
 30
0.0
  0
VERTEX
  8
OUTLINE
  6
CONTINUOUS
 62
     3
 10
411.26082125035094
 20
560.12492797899415
 30
0.0
  0
VERTEX
  8
OUTLINE
  6
CONTINUOUS
 62
     3
 10
411.30168813210196
 20
560.159272146023
 30
0.0
  0
VERTEX
  8
OUTLINE
  6
CONTINUOUS
 62
     3
 10
411.3422616564892
 20
560.19396234909595
 30
0.0
  0
VERTEX
  8
OUTLINE
  6
CONTINUOUS
 62
     3
 10
411.38250211455352
 20
560.22903895526258
 30
0.0
  0
VERTEX
  8
OUTLINE
  6
CONTINUOUS
 62
     3
 10
411.42236815945017
 20
560.26454327356601
 30
0.0
  0
VERTEX
  8
OUTLINE
  6
CONTINUOUS
 62
     3
 10
411.46180330481377
 20
560.30052518379978
 30
0.0
  0
VERTEX
  8
OUTLINE
  6
CONTINUOUS
 62
     3
 10
411.50074270639828
 20
560.33703929729995
 30
0.0
  0
SEQEND
  8
OUTLINE
  6
CONTINUOUS
 62
     3
  0
LINE
  8
DETAIL
  6
CONTINUOUS
 62
     5
 10
243.48482491209779
 20
12.85447961379986
 30
0.0
 11
243.69400287599731
 21
12.9107137807
 31
0.0
  0
LINE
  8
DETAIL
  6
CONTINUOUS
 62
     5
 10
243.69400287599731
 20
12.9107137807
 30
0.0
 11
243.9108790520977
 21
12.962243433099729
 31
0.0
  0
LINE
  8
DETAIL
  6
CONTINUOUS
 62
     5
 10
243.9108790520977
 20
12.962243433099729
 30
0.0
 11
244.06179282309949
 21
12.990116699199911
 31
0.0
  0
LINE
  8
DETAIL
  6
CONTINUOUS
 62
     5
 10
244.06179282309949
 20
12.990116699199911
 30
0.0
 11
244.14086041709831
 21
12.99938680240075
 31
0.0
  0
LINE
  8
DETAIL
  6
CONTINUOUS
 62
     5
 10
244.14086041709831
 20
12.99938680240075
 30
0.0
 11
244.15078247639661
 21
12.99999693949985
 31
0.0
  0
LINE
  8
OUTLINE
  6
CONTINUOUS
 62
     3
 10
-411.79465264300143
 20
504.70096763890041
 30
0.0
 11
-411.7853798515016
 21
504.78160849680057
 31
0.0
  0
LINE
  8
OUTLINE
  6
CONTINUOUS
 62
     3
 10
-411.7853798515016
 20
504.78160849680057
 30
0.0
 11
-411.75574420860079
 21
505.0798510999004
 31
0.0
  0
LINE
  8
OUTLINE
  6
CONTINUOUS
 62
     3
 10
-411.75574420860079
 20
505.0798510999004
 30
0.0
 11
-411.727594145902
 21
505.41106692990053
 31
0.0
  0
LINE
  8
OUTLINE
  6
CONTINUOUS
 62
     3
 10
-411.727594145902
 20
505.41106692990053
 30
0.0
 11
-411.70164793030108
 21
505.77340873370088
 31
0.0
  0
LINE
  8
OUTLINE
  6
CONTINUOUS
 62
     3
 10
-411.70164793030108
 20
505.77340873370088
 30
0.0
 11
-411.68144099454628
 21
506.11605905418457
 31
0.0
  0
ENDSEC
  0
EOF
