  0
SECTION
  2
HEADER
  9
$ACADVER
  1
AC1009
  9
$DWGCODEPAGE
  3
dos932
  9
$INSBASE
 10
0.0
 20
0.0
 30
0.0
  9
$EXTMIN
 10
-431.57634489171869
 20
-231.7665211200829
 30
-0.0000000000112498
  9
$EXTMAX
 10
283.18526965292591
 20
1200.1099094158201
 30
0.0000000000002956
  9
$LIMMIN
 10
0.0000014455781638
 20
-0.0000031812703583
  9
$LIMMAX
 10
5940.0000014455791
 20
4199.9999968187294
  9
$ORTHOMODE
 70
     0
  9
$REGENMODE
 70
     1
  9
$FILLMODE
 70
     1
  9
$QTEXTMODE
 70
     0
  9
$MIRRTEXT
 70
     1
  9
$LTSCALE
 40
10.0
  9
$ATTMODE
 70
     1
  9
$TEXTSIZE
 40
2.5
  9
$TRACEWID
 40
1.0
  9
$TEXTSTYLE
  7
STYLE1
  9
$CLAYER
  8
SIZE
  9
$CELTYPE
  6
ByLayer
  9
$CECOLOR
 62
    30
  9
$DIMSCALE
 40
10.0
  9
$DIMASZ
 40
1.0
  9
$DIMEXO
 40
0.0
  9
$DIMDLI
 40
12.0
  9
$DIMRND
 40
0.0
  9
$DIMDLE
 40
0.0
  9
$DIMEXE
 40
2.0
  9
$DIMTP
 40
0.1
  9
$DIMTM
 40
0.1
  9
$DIMTXT
 40
4.0
  9
$DIMCEN
 40
0.0
  9
$DIMTSZ
 40
0.0
  9
$DIMTOL
 70
     0
  9
$DIMLIM
 70
     0
  9
$DIMTIH
 70
     0
  9
$DIMTOH
 70
     0
  9
$DIMSE1
 70
     0
  9
$DIMSE2
 70
     0
  9
$DIMTAD
 70
     3
  9
$DIMZIN
 70
     8
  9
$DIMBLK
  1

  9
$DIMASO
 70
     1
  9
$DIMSHO
 70
     1
  9
$DIMPOST
  1

  9
$DIMAPOST
  1
"
  9
$DIMALT
 70
     0
  9
$DIMALTD
 70
     2
  9
$DIMALTF
 40
0.0393701
  9
$DIMLFAC
 40
1.0
  9
$DIMTOFL
 70
     1
  9
$DIMTVP
 40
0.0
  9
$DIMTIX
 70
     0
  9
$DIMSOXD
 70
     0
  9
$DIMSAH
 70
     0
  9
$DIMBLK1
  1

  9
$DIMBLK2
  1

  9
$DIMSTYLE
  2
MHIJIS
  9
$DIMCLRD
 70
     3
  9
$DIMCLRE
 70
     3
  9
$DIMCLRT
 70
     3
  9
$DIMTFAC
 40
0.71
  9
$DIMGAP
 40
1.0
  9
$LUNITS
 70
     2
  9
$LUPREC
 70
     4
  9
$SKETCHINC
 40
1.0
  9
$FILLETRAD
 40
0.0
  9
$AUNITS
 70
     0
  9
$AUPREC
 70
     0
  9
$MENU
  1
.
  9
$ELEVATION
 40
0.0
  9
$PELEVATION
 40
0.0
  9
$THICKNESS
 40
0.0
  9
$LIMCHECK
 70
     0
  9
$CHAMFERA
 40
0.0
  9
$CHAMFERB
 40
0.0
  9
$SKPOLY
 70
     0
  9
$TDCREATE
 40
2454511.500316863
  9
$TDUPDATE
 40
2457701.648639711
  9
$TDINDWG
 40
0.2551603241
  9
$TDUSRTIMER
 40
0.2551603241
  9
$USRTIMER
 70
     1
  9
$ANGBASE
 50
0.0
  9
$ANGDIR
 70
     0
  9
$PDMODE
 70
     0
  9
$PDSIZE
 40
0.0
  9
$PLINEWID
 40
0.0
  9
$SPLFRAME
 70
     0
  9
$SPLINETYPE
 70
     6
  9
$SPLINESEGS
 70
     8
  9
$SURFTAB1
 70
     6
  9
$SURFTAB2
 70
     6
  9
$SURFTYPE
 70
     6
  9
$SURFU
 70
     6
  9
$SURFV
 70
     6
  9
$UCSNAME
  2

  9
$UCSORG
 10
0.0
 20
0.0
 30
0.0
  9
$UCSXDIR
 10
1.0
 20
0.0
 30
0.0
  9
$UCSYDIR
 10
0.0
 20
1.0
 30
0.0
  9
$PUCSNAME
  2

  9
$PUCSORG
 10
0.0
 20
0.0
 30
0.0
  9
$PUCSXDIR
 10
1.0
 20
0.0
 30
0.0
  9
$PUCSYDIR
 10
0.0
 20
1.0
 30
0.0
  9
$USERI1
 70
     0
  9
$USERI2
 70
     0
  9
$USERI3
 70
     0
  9
$USERI4
 70
     0
  9
$USERI5
 70
     0
  9
$USERR1
 40
0.0
  9
$USERR2
 40
0.0
  9
$USERR3
 40
0.0
  9
$USERR4
 40
0.0
  9
$USERR5
 40
0.0
  9
$WORLDVIEW
 70
     1
  9
$SHADEDGE
 70
     3
  9
$SHADEDIF
 70
    70
  9
$TILEMODE
 70
     1
  9
$MAXACTVP
 70
    64
  9
$PINSBASE
 10
0.0
 20
0.0
 30
0.0
  9
$PLIMCHECK
 70
     0
  9
$PEXTMIN
 10
0.0
 20
0.0
 30
0.0
  9
$PEXTMAX
 10
0.0
 20
0.0
 30
0.0
  9
$PLIMMIN
 10
0.0
 20
0.0
  9
$PLIMMAX
 10
12.0
 20
9.0
  9
$UNITMODE
 70
     0
  9
$VISRETAIN
 70
     1
  9
$PLINEGEN
 70
     0
  9
$PSLTSCALE
 70
     1
  9
$TREEDEPTH
 70
  3020
  9
$ATTDIA
 70
     0
  9
$ATTREQ
 70
     1
  9
$BLIPMODE
 70
     1
  9
$COORDS
 70
     1
  9
$DRAGMODE
 70
     2
  9
$OSMODE
 70
     0
  9
$HANDLING
 70
     0
  9
$HANDSEED
  5
2CF9
  0
ENDSEC
  0
SECTION
  2
TABLES
  0
TABLE
  2
LTYPE
 70
     4
  0
LTYPE
  2
CONTINUOUS
 70
     0
  3
Solid line
 72
    65
 73
     0
 40
0.0
  0
LTYPE
  2
AM_ISO02W050
 70
     0
  3
__ __ __ __ __ __ __ __ __ __ __ __ __ __ __
 72
    65
 73
     2
 40
7.5
 49
6.0
 49
-1.5
  0
LTYPE
  2
AM_ISO08W050
 70
     0
  3
____ . ____ . ____ . ____ . ____ . ____ . ____
 72
    65
 73
     4
 40
18.0
 49
12.0
 49
-1.5
 49
3.0
 49
-1.5
  0
LTYPE
  2
CENTER
 70
     0
  3
__ . __
 72
    65
 73
     4
 40
7.0
 49
4.0
 49
-1.0
 49
1.0
 49
-1.0
  0
ENDTAB
  0
TABLE
  2
LAYER
 70
     8
  0
LAYER
  2
SIZE
 70
     0
 62
    30
  6
CONTINUOUS
  0
LAYER
  2
SERVICESPACE
 70
     0
 62
     2
  6
AM_ISO02W050
  0
LAYER
  2
DETAIL
 70
     0
 62
     5
  6
CONTINUOUS
  0
LAYER
  2
OUTLINE
 70
     0
 62
     3
  6
CONTINUOUS
  0
LAYER
  2
NOTE
 70
     0
 62
     4
  6
CONTINUOUS
  0
LAYER
  2
ARRANGE
 70
     0
 62
     1
  6
CONTINUOUS
  0
LAYER
  2
FIX
 70
     0
 62
    11
  6
CONTINUOUS
  0
LAYER
  2
BASIS
 70
     0
 62
     6
  6
AM_ISO08W050
  0
ENDTAB
  0
TABLE
  2
STYLE
 70
     2
  0
STYLE
  2
STANDARD
 70
     0
 40
0.0
 41
0.7
 50
0.0
 71
     0
 42
2.5
  3
simplex.shx
  4
bigfont.shx
  0
STYLE
  2
STYLE1
 70
     0
 40
0.0
 41
1.0
 50
0.0
 71
     0
 42
2.5
  3
monotxt.shx
  4
bigfont.shx
  0
ENDTAB
  0
TABLE
  2
APPID
 70
    50
  0
APPID
  2
ACAD
 70
     0
  0
APPID
  2
MCAD_NO_VIS
 70
     0
  0
APPID
  2
ACAD_TEMP_GRAPHIC
 70
     0
  0
APPID
  2
ACATTRIBSERVICES
 70
     0
  0
APPID
  2
AD_DRAW
 70
     0
  0
APPID
  2
DESIGNERASSEMBLIES
 70
     0
  0
APPID
  2
ACADM_DIM_EDIT
 70
     0
  0
APPID
  2
AMDT_DM_ADJ
 70
     0
  0
APPID
  2
RAK
 70
     0
  0
APPID
  2
ACAD_DSTYLE_DIMARC_LENGTH_SYMBO
 70
     0
  0
APPID
  2
ACAD_DSTYLE_DIMJOGGED_JOGANGLE_
 70
     0
  0
APPID
  2
GENIUS_GENTRA_14
 70
     0
  0
APPID
  2
GENIUS_GENOENT_13
 70
     0
  0
APPID
  2
GENIUS_GENOLIS_13
 70
     0
  0
APPID
  2
GENIUS_GENOBJ-N-TIT_13
 70
     0
  0
APPID
  2
GENIUS_GENODEF_13
 70
     0
  0
APPID
  2
GENIUS_GENTITLE_13
 70
     0
  0
APPID
  2
GENIUS_GENOREF_13
 70
     0
  0
APPID
  2
GENIUS_GENSCREG_15
 70
     0
  0
APPID
  2
GENIUS_GENOBJ-N-SDF_13
 70
     0
  0
APPID
  2
ACAECLAYERSTANDARD
 70
     0
  0
APPID
  2
ACAD_DSTYLE_DIMEXT_LENGTH
 70
     0
  0
APPID
  2
ACAD_DSTYLE_DIMEXT_ENABLED
 70
     0
  0
APPID
  2
ACAD_PSEXT
 70
     0
  0
APPID
  2
GENIUS_GENOBJ-N-CEN_13
 70
     0
  0
APPID
  2
DCO15
 70
     0
  0
APPID
  2
ACAD_NAV_VCDISPLAY
 70
     0
  0
APPID
  2
ACADANNOPO
 70
     0
  0
APPID
  2
ACADANNOTATIVE
 70
     0
  0
APPID
  2
ACAD_DSTYLE_DIMJAG
 70
     0
  0
APPID
  2
ACAD_DSTYLE_DIMTALN
 70
     0
  0
APPID
  2
ACAD_MLEADERVER
 70
     0
  0
APPID
  2
ACAD_DSTYLE_DIMBREAK
 70
     0
  0
APPID
  2
ACAD_EXEMPT_FROM_CAD_STANDARDS
 70
     0
  0
APPID
  2
GENIUS_GENREC_14
 70
     0
  0
APPID
  2
GENIUS_GENOBJ-N-REC_13
 70
     0
  0
APPID
  2
GENIUS_GENDIM_13
 70
     0
  0
APPID
  2
GENIUS_GENDTOL_13
 70
     0
  0
APPID
  2
GENIUS_GE3DTOL_13
 70
     0
  0
APPID
  2
ASURF_PCURVE_APPNAME
 70
     0
  0
APPID
  2
AMG_3D2D_5_0
 70
     0
  0
APPID
  2
GENIUS_GENOBJ-N-HTC_13
 70
     0
  0
APPID
  2
GENIUS_GENHATCH_13
 70
     0
  0
APPID
  2
GRADIENTCOLOR1ACI
 70
     0
  0
APPID
  2
GRADIENTCOLOR2ACI
 70
     0
  0
APPID
  2
ACADSTRINGINFO
 70
     0
  0
APPID
  2
ACCMTRANSPARENCY
 70
     0
  0
APPID
  2
ACAD_DSTYLE_DIM_LINETYPE
 70
     0
  0
APPID
  2
ACAD_DSTYLE_DIM_EXT1_LINETYPE
 70
     0
  0
APPID
  2
ACAD_DSTYLE_DIM_EXT2_LINETYPE
 70
     0
  0
ENDTAB
  0
TABLE
  2
DIMSTYLE
 70
     1
  0
DIMSTYLE
  2
MHIJIS
 70
     0
  3

  4
"
  5
_OPEN30
  6

  7

 40
1.0
 41
3.149999999999999
 42
0.0
 43
12.0
 44
2.0
 45
0.0
 46
0.0
 47
0.1
 48
0.1
140
4.0
141
0.0
142
0.0
143
0.0393701
144
1.0
145
0.0
146
0.71
147
1.0
 71
     0
 72
     0
 73
     0
 74
     0
 75
     0
 76
     0
 77
     3
 78
     8
170
     0
171
     2
172
     1
173
     0
174
     0
175
     0
176
     3
177
     3
178
     3
  0
ENDTAB
  0
TABLE
  2
VIEW
 70
     6
  0
VIEW
  2
AM_VIEW1
 70
     0
 40
2100.0
 10
1795.317920520723
 20
3149.9999968187299
 41
3590.6358381502891
 11
0.0
 21
0.0
 31
1.0
 12
0.0
 22
0.0
 32
0.0
 42
50.0
 43
0.0
 44
0.0
 50
0.0
 71
     0
  0
VIEW
  2
AM_VIEW2
 70
     0
 40
2100.0
 10
4144.6820823704329
 20
3149.9999968187299
 41
3590.6358381502891
 11
0.0
 21
0.0
 31
1.0
 12
0.0
 22
0.0
 32
0.0
 42
50.0
 43
0.0
 44
0.0
 50
0.0
 71
     0
  0
VIEW
  2
AM_VIEW3
 70
     0
 40
2100.0
 10
1795.317920520723
 20
1049.999996818729
 41
3590.6358381502891
 11
0.0
 21
0.0
 31
1.0
 12
0.0
 22
0.0
 32
0.0
 42
50.0
 43
0.0
 44
0.0
 50
0.0
 71
     0
  0
VIEW
  2
AM_VIEW4
 70
     0
 40
2100.0
 10
4144.6820823704329
 20
1049.999996818729
 41
3590.6358381502891
 11
0.0
 21
0.0
 31
1.0
 12
0.0
 22
0.0
 32
0.0
 42
50.0
 43
0.0
 44
0.0
 50
0.0
 71
     0
  0
VIEW
  2
AM_VIEW5
 70
     0
 40
2100.0
 10
2970.0000014455782
 20
2099.999996818729
 41
3590.6358381502891
 11
0.0
 21
0.0
 31
1.0
 12
0.0
 22
0.0
 32
0.0
 42
50.0
 43
0.0
 44
0.0
 50
0.0
 71
     0
  0
VIEW
  2
AM_VIEW6
 70
     0
 40
4199.9580000000014
 10
2970.0000014455782
 20
2099.999996818729
 41
7181.1998635838154
 11
0.0
 21
0.0
 31
1.0
 12
0.0
 22
0.0
 32
0.0
 42
50.0
 43
0.0
 44
0.0
 50
0.0
 71
     0
  0
ENDTAB
  0
TABLE
  2
UCS
 70
     0
  0
ENDTAB
  0
TABLE
  2
VPORT
 70
     1
  0
VPORT
  2
*ACTIVE
 70
     0
 10
0.0
 20
0.0
 11
1.0
 21
1.0
 12
-74.195537619396418
 22
484.17169414786838
 13
0.0
 23
0.0
 14
25.0
 24
25.0
 15
100.0
 25
100.0
 16
0.0
 26
0.0
 36
1.0
 17
0.0
 27
0.0
 37
0.0
 40
1444.718371616942
 41
1.869760479041916
 42
50.0
 43
0.0
 44
0.0
 50
0.0
 51
0.0
 71
     0
 72
   100
 73
     1
 74
     3
 75
     0
 76
     0
 77
     0
 78
     0
  0
ENDTAB
  0
ENDSEC
  0
SECTION
  2
BLOCKS
  0
BLOCK
  8
SIZE
  2
_OPEN30
 70
     0
 10
0.0
 20
0.0
 30
0.0
  3
_OPEN30
  1
_Open30
  0
LINE
  8
SIZE
  6
ByBlock
 62
    30
 10
-1.0
 20
0.26794919
 30
0.0
 11
0.0
 21
0.0
 31
0.0
  0
LINE
  8
SIZE
  6
ByBlock
 62
    30
 10
0.0
 20
0.0
 30
0.0
 11
-1.0
 21
-0.26794919
 31
0.0
  0
LINE
  8
SIZE
  6
ByBlock
 62
    30
 10
0.0
 20
0.0
 30
0.0
 11
-1.0
 21
0.0
 31
0.0
  0
ENDBLK
  8
SIZE
  0
BLOCK
  8
SIZE
  2
SD4
 70
     0
 10
0.0
 20
0.0
 30
0.0
  3
SD4
  1
*D4
  0
LINE
  8
SIZE
 10
-188.39999997527229
 20
137.0000000000004
 30
0.0
 11
-188.39999997527229
 21
-172.2814780176133
 31
0.0
  0
LINE
  8
SIZE
 10
-336.79999997527187
 20
-9.2315979003897155
 30
0.0
 11
-336.79999997527187
 21
-172.2814780176133
 31
0.0
  0
LINE
  8
SIZE
 10
-218.39999997527229
 20
-152.2814780176133
 30
0.0
 11
-306.79999997527187
 21
-152.2814780176133
 31
0.0
  0
INSERT
  8
SIZE
  2
_OPEN30
 10
-188.39999997527229
 20
-152.2814780176133
 30
0.0
 41
30.0
 42
30.0
 43
30.0
  0
INSERT
  8
SIZE
  2
_OPEN30
 10
-336.79999997527187
 20
-152.2814780176133
 30
0.0
 41
30.0
 42
30.0
 43
30.0
 50
180.0
  0
INSERT
  8
SIZE
  2
MTEXT_0
 10
0.0
 20
0.0
 30
0.0
 41
1.0
 42
1.0
 43
1.0
 50
0.0
210
0.0
220
0.0
230
1.0
  0
POINT
  8
SIZE
 62
    30
 10
-188.39999997527229
 20
137.0000000000004
 30
0.0
  0
POINT
  8
SIZE
 62
    30
 10
-336.79999997527187
 20
-9.2315979003897155
 30
0.0
  0
POINT
  8
SIZE
 62
    30
 10
-336.79999997527187
 20
-152.2814780176133
 30
0.0
  0
ENDBLK
  8
SIZE
  0
BLOCK
  8
SIZE
  2
SD5
 70
     0
 10
0.0
 20
0.0
 30
0.0
  3
SD5
  1
*D5
  0
LINE
  8
SIZE
 10
-154.8999999752736
 20
94.499999999958618
 30
0.0
 11
-154.89999997527369
 21
-172.2814780176133
 31
0.0
  0
LINE
  8
SIZE
 10
-188.39999997527229
 20
137.0000000000006
 30
0.0
 11
-188.39999997527229
 21
-172.2814780176133
 31
0.0
  0
LINE
  8
SIZE
 10
-218.39999997527229
 20
-152.2814780176133
 30
0.0
 11
-248.39999997527229
 21
-152.2814780176133
 31
0.0
  0
LINE
  8
SIZE
 10
-124.8999999752737
 20
-152.2814780176133
 30
0.0
 11
-10.89999997527366
 21
-152.2814780176133
 31
0.0
  0
LINE
  8
SIZE
 10
-188.39999997527229
 20
-152.2814780176133
 30
0.0
 11
-154.89999997527369
 21
-152.2814780176133
 31
0.0
  0
INSERT
  8
SIZE
  2
_OPEN30
 10
-188.39999997527229
 20
-152.2814780176133
 30
0.0
 41
30.0
 42
30.0
 43
30.0
  0
INSERT
  8
SIZE
  2
_OPEN30
 10
-154.89999997527369
 20
-152.2814780176133
 30
0.0
 41
30.0
 42
30.0
 43
30.0
 50
180.0
  0
INSERT
  8
SIZE
  2
MTEXT_1
 10
0.0
 20
0.0
 30
0.0
 41
1.0
 42
1.0
 43
1.0
 50
0.0
210
0.0
220
0.0
230
1.0
  0
POINT
  8
SIZE
 62
    30
 10
-154.8999999752736
 20
94.499999999958618
 30
0.0
  0
POINT
  8
SIZE
 62
    30
 10
-188.39999997527229
 20
137.0000000000006
 30
0.0
  0
POINT
  8
SIZE
 62
    30
 10
-188.39999997527229
 20
-152.2814780176133
 30
0.0
  0
ENDBLK
  8
SIZE
  0
BLOCK
  8
SIZE
  2
SD6
 70
     0
 10
0.0
 20
0.0
 30
0.0
  3
SD6
  1
*D6
  0
LINE
  8
SIZE
 10
-173.399899975273
 20
137.0000000000004
 30
0.0
 11
166.3967763370978
 21
137.0000000000006
 31
0.0
  0
LINE
  8
SIZE
 10
-161.39667379669839
 20
159.65848103704201
 30
0.0
 11
83.390098955145589
 21
365.05897177055738
 31
0.0
  0
ARC
  8
SIZE
 10
-188.39999997527229
 20
137.0000000000004
 30
0.0
 40
334.7967763123703
 50
5.1357990470787129
 51
34.864200952971622
  0
INSERT
  8
SIZE
  2
_OPEN30
 10
146.3967763370978
 20
137.0000000000006
 30
0.0
 41
30.0
 42
30.0
 43
30.0
 50
272.56789952353938
  0
INSERT
  8
SIZE
  2
_OPEN30
 10
68.069210092777354
 20
352.20321957681318
 30
0.0
 41
30.0
 42
30.0
 43
30.0
 50
127.432100476511
  0
INSERT
  8
SIZE
  2
MTEXT_2
 10
0.0
 20
0.0
 30
0.0
 41
1.0
 42
1.0
 43
1.0
 50
0.0
210
0.0
220
0.0
230
1.0
  0
POINT
  8
SIZE
 62
    30
 10
137.37228590211751
 20
214.2094500911353
 30
0.0
  0
POINT
  8
SIZE
 62
    30
 10
-188.39999997527269
 20
137.0000000000004
 30
0.0
  0
POINT
  8
SIZE
 62
    30
 10
-200.55675146374909
 20
126.79927430968741
 30
0.0
  0
POINT
  8
SIZE
 62
    30
 10
-161.39667379669839
 20
159.65848103704201
 30
0.0
  0
POINT
  8
SIZE
 62
    30
 10
-173.399899975273
 20
137.0000000000004
 30
0.0
  0
ENDBLK
  8
SIZE
  0
BLOCK
  8
SIZE
  2
SD7
 70
     0
 10
0.0
 20
0.0
 30
0.0
  3
SD7
  1
*D7
  0
LINE
  8
SIZE
 10
-139.89989997527391
 20
94.500000000000426
 30
0.0
 11
283.11457626733829
 21
94.500000000000426
 31
0.0
  0
LINE
  8
SIZE
 10
-123.1328187458812
 20
121.15586165723791
 30
0.0
 11
180.6384677879054
 21
376.05053836233918
 31
0.0
  0
ARC
  8
SIZE
 10
-154.89999997522381
 20
94.500000000000455
 30
0.0
 40
418.01457624256221
 50
4.1128768782891294
 51
35.887156571689502
  0
INSERT
  8
SIZE
  2
_OPEN30
 10
263.11457626733841
 20
94.500000000000426
 30
0.0
 41
30.0
 42
30.0
 43
30.0
 50
272.05643843914447
  0
INSERT
  8
SIZE
  2
_OPEN30
 10
165.31758643087429
 20
363.19477722408777
 30
0.0
 41
30.0
 42
30.0
 43
30.0
 50
127.943595010834
  0
INSERT
  8
SIZE
  2
MTEXT_3
 10
0.0
 20
0.0
 30
0.0
 41
1.0
 42
1.0
 43
1.0
 50
0.0
210
0.0
220
0.0
230
1.0
  0
POINT
  8
SIZE
 62
    30
 10
251.8469205052036
 20
190.90087463782609
 30
0.0
  0
POINT
  8
SIZE
 62
    30
 10
-123.1328187458812
 20
121.15586165723791
 30
0.0
  0
POINT
  8
SIZE
 62
    30
 10
-154.8999999752736
 20
94.500000000000426
 30
0.0
  0
POINT
  8
SIZE
 62
    30
 10
-139.89989997527391
 20
94.500000000000426
 30
0.0
  0
POINT
  8
SIZE
 62
    30
 10
-166.23658144402449
 20
84.987467392315679
 30
0.0
  0
ENDBLK
  8
SIZE
  0
BLOCK
  8
SIZE
  2
MTEXT_0
 70
     0
 10
0.0
 20
0.0
  3
MTEXT_0
  0
TEXT
  8
SIZE
 10
-305.01999997527213
 20
-142.28147801761338
 30
0.0
 40
30.0
  1
148.4
 41
0.7
  7
STANDARD
 71
     0
 72
     1
 11
-262.59999997527211
 21
-142.28147801761338
 31
0.0
210
0.0
220
0.0
230
1.0
  0
ENDBLK
  8
SIZE
  0
BLOCK
  8
SIZE
  2
MTEXT_1
 70
     0
 10
0.0
 20
0.0
  3
MTEXT_1
  0
TEXT
  8
SIZE
 10
-87.234999975273666
 20
-142.28147801761338
 30
0.0
 40
30.0
  1
33.5
 41
0.7
  7
STANDARD
 71
     0
 72
     1
 11
-52.899999975273666
 21
-142.28147801761338
 31
0.0
210
0.0
220
0.0
230
1.0
  0
ENDBLK
  8
SIZE
  0
BLOCK
  8
SIZE
  2
MTEXT_2
 70
     0
 10
0.0
 20
0.0
  3
MTEXT_2
  0
TEXT
  8
SIZE
 10
127.41502416495319
 20
277.42368419433933
 30
0.0
 40
30.0
  1
40%%d
 50
290.00000000002524
 41
0.7
  7
STANDARD
 71
     0
 72
     1
 11
135.60298639617963
 21
254.92744285272829
 31
0.0
210
0.0
220
0.0
230
1.0
  0
ENDBLK
  8
SIZE
  0
BLOCK
  8
SIZE
  2
MTEXT_3
 70
     0
 10
0.0
 20
0.0
  3
MTEXT_3
  0
TEXT
  8
SIZE
 10
239.11412737867178
 20
263.38596306871824
 30
0.0
 40
30.0
  1
40%%d
 50
290.00001672498934
 41
0.7
  7
STANDARD
 71
     0
 72
     1
 11
247.30209617667873
 21
240.88972411722091
 31
0.0
210
0.0
220
0.0
230
1.0
  0
ENDBLK
  8
SIZE
  0
ENDSEC
  0
SECTION
  2
ENTITIES
  0
LINE
  8
DETAIL
  6
CONTINUOUS
 62
     5
 10
-349.79999997527381
 20
0.0
 30
0.0
 11
-258.69999997527248
 21
0.0
 31
0.0
  0
LINE
  8
DETAIL
  6
CONTINUOUS
 62
     5
 10
-92.899999975273204
 20
0.0
 30
0.0
 11
-1.79999997527193
 21
0.0
 31
0.0
  0
LINE
  8
DETAIL
  6
CONTINUOUS
 62
     5
 10
-257.36547242977213
 20
3.0000000000006821
 30
0.0
 11
-94.234527520773554
 21
3.0000000000006821
 31
0.0
  0
LINE
  8
DETAIL
  6
CONTINUOUS
 62
     5
 10
-111.7031170105729
 20
3.006045552000387
 30
0.0
 11
-149.1901308507731
 21
3.0060459955996062
 31
0.0
  0
LINE
  8
DETAIL
  6
CONTINUOUS
 62
     5
 10
-239.4460465968728
 20
3.0060459445996912
 30
0.0
 11
-257.36979033797343
 21
3.0060455100999661
 31
0.0
  0
LINE
  8
DETAIL
  6
CONTINUOUS
 62
     5
 10
-349.79999997527381
 20
3.600000000000136
 30
0.0
 11
-258.69999997527248
 21
3.600000000000136
 31
0.0
  0
LINE
  8
DETAIL
  6
CONTINUOUS
 62
     5
 10
-92.899999975273204
 20
3.600000000000136
 30
0.0
 11
-1.79999997527193
 21
3.600000000000136
 31
0.0
  0
LINE
  8
DETAIL
  6
CONTINUOUS
 62
     5
 10
-288.75147018347252
 20
641.64852753380069
 30
0.0
 11
-290.2244754763733
 21
640.17552205960124
 31
0.0
  0
LINE
  8
DETAIL
  6
CONTINUOUS
 62
     5
 10
-301.14314572577359
 20
8.0000000000006821
 30
0.0
 11
-49.756854224772731
 21
8.0000000000006821
 31
0.0
  0
LINE
  8
DETAIL
  6
CONTINUOUS
 62
     5
 10
-253.79999997527241
 20
12.400000000000089
 30
0.0
 11
-267.29999997527369
 21
12.400000000000089
 31
0.0
  0
LINE
  8
DETAIL
  6
CONTINUOUS
 62
     5
 10
-320.3999999752732
 20
12.400000000000089
 30
0.0
 11
-30.499999975273109
 21
12.400000000000089
 31
0.0
  0
LINE
  8
DETAIL
  6
CONTINUOUS
 62
     5
 10
-307.12548337487351
 20
11.828427124700051
 30
0.0
 11
-304.82010098797258
 21
9.5230447378003191
 31
0.0
  0
LINE
  8
DETAIL
  6
CONTINUOUS
 62
     5
 10
-110.70802554677169
 20
40.600000000000591
 30
0.0
 11
-233.3292752484731
 21
40.600000000000591
 31
0.0
  0
LINE
  8
DETAIL
  6
CONTINUOUS
 62
     5
 10
-330.41745304627329
 20
44.513601591900162
 30
0.0
 11
-320.3999999752732
 21
44.426180603400091
 31
0.0
  0
LINE
  8
DETAIL
  6
CONTINUOUS
 62
     5
 10
-264.69705625017292
 20
8.0000000000006821
 30
0.0
 11
-261.22010098817373
 21
4.5230447381004524
 31
0.0
  0
LINE
  8
DETAIL
  6
CONTINUOUS
 62
     5
 10
-208.75147077547169
 20
641.64852919980035
 30
0.0
 11
-210.22426252687231
 21
640.17573744840115
 31
0.0
  0
LINE
  8
DETAIL
  6
CONTINUOUS
 62
     5
 10
-91.739450253872292
 20
81.44187713950032
 30
0.0
 11
-91.727748950973364
 21
81.441823197700387
 31
0.0
  0
LINE
  8
DETAIL
  6
CONTINUOUS
 62
     5
 10
-226.5715728505738
 20
614.50000000000057
 30
0.0
 11
-229.39999997527181
 21
610.50000000000057
 31
0.0
  0
LINE
  8
DETAIL
  6
CONTINUOUS
 62
     5
 10
-127.85147077547251
 20
641.64852919980035
 30
0.0
 11
-129.3242625268731
 21
640.17573744840115
 31
0.0
  0
LINE
  8
DETAIL
  6
CONTINUOUS
 62
     5
 10
-341.59999997527211
 20
3.600000000000136
 30
0.0
 11
-341.59999997527211
 21
0.0
 31
0.0
  0
LINE
  8
DETAIL
  6
CONTINUOUS
 62
     5
 10
-332.39999997527372
 20
46.513525438000443
 30
0.0
 11
-332.39999997527372
 21
580.28647456190015
 31
0.0
  0
LINE
  8
DETAIL
  6
CONTINUOUS
 62
     5
 10
-320.3999999752732
 20
631.35430572810014
 30
0.0
 11
-320.3999999752732
 21
12.400000000000089
 31
0.0
  0
LINE
  8
DETAIL
  6
CONTINUOUS
 62
     5
 10
-96.57157285057383
 20
614.50000000000057
 30
0.0
 11
-99.39999997527184
 21
610.50000000000057
 31
0.0
  0
LINE
  8
DETAIL
  6
CONTINUOUS
 62
     5
 10
-266.89999997527178
 20
3.600000000000136
 30
0.0
 11
-266.89999997527178
 21
0.0
 31
0.0
  0
LINE
  8
DETAIL
  6
CONTINUOUS
 62
     5
 10
-253.1999999752729
 20
13.40000000000032
 30
0.0
 11
-253.1999999752729
 21
575.50000000000057
 31
0.0
  0
LINE
  8
DETAIL
  6
CONTINUOUS
 62
     5
 10
-91.727748950973364
 20
247.56255874680051
 30
0.0
 11
-91.739450253872292
 21
247.5625048050006
 31
0.0
  0
LINE
  8
DETAIL
  6
CONTINUOUS
 62
     5
 10
-159.39999997527181
 20
241.49025919340031
 30
0.0
 11
-178.39999997527269
 21
241.49025919340031
 31
0.0
  0
LINE
  8
DETAIL
  6
CONTINUOUS
 62
     5
 10
-242.69999997527341
 20
50.328347073600519
 30
0.0
 11
-242.69999997527341
 21
575.87891482790042
 31
0.0
  0
LINE
  8
DETAIL
  6
CONTINUOUS
 62
     5
 10
-231.39999997527229
 20
610.50000000000057
 30
0.0
 11
-231.39999997527229
 21
614.50000000000057
 31
0.0
  0
LINE
  8
DETAIL
  6
CONTINUOUS
 62
     5
 10
-229.39999997527181
 20
610.50000000000057
 30
0.0
 11
-229.39999997527181
 21
614.50000000000057
 31
0.0
  0
LINE
  8
DETAIL
  6
CONTINUOUS
 62
     5
 10
-226.76329120817221
 20
233.75185157850069
 30
0.0
 11
-226.76329120817221
 21
73.756805555700566
 31
0.0
  0
LINE
  8
DETAIL
  6
CONTINUOUS
 62
     5
 10
-221.3316278575717
 20
508.2601225180008
 30
0.0
 11
-221.3316278575717
 21
528.39567869000007
 31
0.0
  0
LINE
  8
DETAIL
  6
CONTINUOUS
 62
     5
 10
-39.506882041173867
 20
4.0999999999996808
 30
0.0
 11
-43.897745353772727
 21
11.70519834660012
 31
0.0
  0
LINE
  8
DETAIL
  6
CONTINUOUS
 62
     5
 10
-101.19999997527241
 20
81.44187713950032
 30
0.0
 11
-108.92876592417269
 21
98.707764972500627
 31
0.0
  0
LINE
  8
DETAIL
  6
CONTINUOUS
 62
     5
 10
-91.727748950973364
 20
81.441823197700387
 30
0.0
 11
-99.456519768473754
 21
98.707721907300083
 31
0.0
  0
LINE
  8
DETAIL
  6
CONTINUOUS
 62
     5
 10
-307.46115187957281
 20
12.1228005027001
 30
0.0
 11
-312.09311790947191
 21
4.0999999999996808
 31
0.0
  0
LINE
  8
DETAIL
  6
CONTINUOUS
 62
     5
 10
-122.5683720929719
 20
528.39567869000007
 30
0.0
 11
-122.5683720929719
 21
508.2601225180008
 31
0.0
  0
LINE
  8
DETAIL
  6
CONTINUOUS
 62
     5
 10
-111.344007439473
 20
73.325326640500634
 30
0.0
 11
-111.344007439473
 21
234.18333049370059
 31
0.0
  0
LINE
  8
DETAIL
  6
CONTINUOUS
 62
     5
 10
-109.8223893319737
 20
222.85327642819991
 30
0.0
 11
-109.8223893319737
 21
106.1511055163009
 31
0.0
  0
LINE
  8
DETAIL
  6
CONTINUOUS
 62
     5
 10
-101.39999997527229
 20
610.50000000000057
 30
0.0
 11
-101.39999997527229
 21
614.50000000000057
 31
0.0
  0
LINE
  8
DETAIL
  6
CONTINUOUS
 62
     5
 10
-101.19999997527241
 20
50.663844042600203
 30
0.0
 11
-101.19999997527241
 21
81.44187713950032
 31
0.0
  0
LINE
  8
DETAIL
  6
CONTINUOUS
 62
     5
 10
-101.19999997527241
 20
247.5625048050006
 30
0.0
 11
-101.19999997527241
 21
575.68222113500065
 31
0.0
  0
LINE
  8
DETAIL
  6
CONTINUOUS
 62
     5
 10
-100.29431099067369
 20
106.1512344979007
 30
0.0
 11
-100.29431099067369
 21
222.8531494376
 31
0.0
  0
LINE
  8
DETAIL
  6
CONTINUOUS
 62
     5
 10
-99.39999997527184
 20
610.50000000000057
 30
0.0
 11
-99.39999997527184
 21
614.50000000000057
 31
0.0
  0
LINE
  8
DETAIL
  6
CONTINUOUS
 62
     5
 10
-90.699999975272931
 20
12.400000000000089
 30
0.0
 11
-90.699999975272931
 21
575.50000000000057
 31
0.0
  0
LINE
  8
DETAIL
  6
CONTINUOUS
 62
     5
 10
-84.69999997527384
 20
3.600000000000136
 30
0.0
 11
-84.69999997527384
 21
0.0
 31
0.0
  0
LINE
  8
DETAIL
  6
CONTINUOUS
 62
     5
 10
-21.999999975271749
 20
559.51309296080012
 30
0.0
 11
-22.19999997527384
 21
558.79999999999995
 31
0.0
  0
LINE
  8
DETAIL
  6
CONTINUOUS
 62
     5
 10
-101.19999997527241
 20
247.5625048050006
 30
0.0
 11
-108.92876592417269
 21
230.29661697200029
 31
0.0
  0
LINE
  8
DETAIL
  6
CONTINUOUS
 62
     5
 10
-99.456519477471829
 20
230.2966606873008
 30
0.0
 11
-91.727748950973364
 21
247.56255874680051
 31
0.0
  0
LINE
  8
DETAIL
  6
CONTINUOUS
 62
     5
 10
-253.1999999752729
 20
433.50000000000023
 30
0.0
 11
-252.69999997527341
 21
433.50000000000023
 31
0.0
  0
LINE
  8
DETAIL
  6
CONTINUOUS
 62
     5
 10
-91.199999975272476
 20
433.50000000000023
 30
0.0
 11
-90.699999975272931
 21
433.50000000000023
 31
0.0
  0
LINE
  8
DETAIL
  6
CONTINUOUS
 62
     5
 10
-234.22842710007259
 20
614.50000000000057
 30
0.0
 11
-231.39999997527229
 21
610.50000000000057
 31
0.0
  0
LINE
  8
DETAIL
  6
CONTINUOUS
 62
     5
 10
-30.499999975273109
 20
631.35430572810014
 30
0.0
 11
-30.499999975273109
 21
12.400000000000089
 31
0.0
  0
LINE
  8
SERVICESPACE
  6
AM_ISO02W050
 62
     2
 10
49.500000024727342
 20
1200.0000000000009
 30
0.0
 11
49.50000002472688
 21
0.0
 31
0.0
  0
LINE
  8
DETAIL
  6
CONTINUOUS
 62
     5
 10
-22.499999975273571
 20
558.79999999999995
 30
0.0
 11
-22.499999975273571
 21
614.50000000000057
 31
0.0
  0
LINE
  8
DETAIL
  6
CONTINUOUS
 62
     5
 10
-9.9999999752735675
 20
3.600000000000136
 30
0.0
 11
-9.9999999752735675
 21
0.0
 31
0.0
  0
LINE
  8
DETAIL
  6
CONTINUOUS
 62
     5
 10
-7.4999999752735667
 20
559.89278881620044
 30
0.0
 11
-7.4999999752735667
 21
610.4971981820006
 31
0.0
  0
LINE
  8
DETAIL
  6
CONTINUOUS
 62
     5
 10
-223.04853129977161
 20
641.64852670920004
 30
0.0
 11
-221.5757404579727
 21
640.1757345971007
 31
0.0
  0
LINE
  8
DETAIL
  6
CONTINUOUS
 62
     5
 10
-22.799999975273298
 20
558.79999999999995
 30
0.0
 11
-22.999999975273109
 21
559.51309296080012
 31
0.0
  0
LINE
  8
DETAIL
  6
CONTINUOUS
 62
     5
 10
-86.841451859673271
 20
8.0000000000006821
 30
0.0
 11
-89.093117909472312
 21
4.0999999999996808
 31
0.0
  0
LINE
  8
DETAIL
  6
CONTINUOUS
 62
     5
 10
-22.499999975273571
 20
559.50000000000057
 30
0.0
 11
-7.4999999752735667
 21
559.8927888235005
 31
0.0
  0
LINE
  8
DETAIL
  6
CONTINUOUS
 62
     5
 10
-22.19999997527384
 20
558.79999999999995
 30
0.0
 11
-22.799999975273298
 21
558.79999999999995
 31
0.0
  0
LINE
  8
DETAIL
  6
CONTINUOUS
 62
     5
 10
-30.499999975273109
 20
559.70948737250069
 30
0.0
 11
-22.499999975273571
 21
559.50000000000057
 31
0.0
  0
LINE
  8
DETAIL
  6
CONTINUOUS
 62
     5
 10
-104.22842710007259
 20
614.50000000000057
 30
0.0
 11
-101.39999997527229
 21
610.50000000000057
 31
0.0
  0
LINE
  8
DETAIL
  6
CONTINUOUS
 62
     5
 10
-330.41745304627329
 20
582.28639840810024
 30
0.0
 11
-320.3999999752732
 21
582.37381939660065
 31
0.0
  0
LINE
  8
DETAIL
  6
CONTINUOUS
 62
     5
 10
-104.9090524614717
 20
579.90000000000032
 30
0.0
 11
-239.09479363847191
 21
579.90000000000032
 31
0.0
  0
LINE
  8
DETAIL
  6
CONTINUOUS
 62
     5
 10
-238.1999999752729
 20
590.50000000000068
 30
0.0
 11
-105.6999999752729
 21
590.50000000000068
 31
0.0
  0
LINE
  8
DETAIL
  6
CONTINUOUS
 62
     5
 10
-142.1485312997724
 20
641.64852670920004
 30
0.0
 11
-140.6757404579734
 21
640.1757345971007
 31
0.0
  0
LINE
  8
DETAIL
  6
CONTINUOUS
 62
     5
 10
-99.39999997527184
 20
610.50000000000057
 30
0.0
 11
-101.39999997527229
 21
610.50000000000057
 31
0.0
  0
LINE
  8
DETAIL
  6
CONTINUOUS
 62
     5
 10
-229.39999997527181
 20
610.50000000000057
 30
0.0
 11
-231.39999997527229
 21
610.50000000000057
 31
0.0
  0
LINE
  8
DETAIL
  6
CONTINUOUS
 62
     5
 10
-320.3999999752732
 20
614.99999999999966
 30
0.0
 11
-30.499999975273109
 21
614.99999999999966
 31
0.0
  0
LINE
  8
DETAIL
  6
CONTINUOUS
 62
     5
 10
-43.774516575672799
 20
11.828427124700051
 30
0.0
 11
-46.079898962573672
 21
9.5230447378003191
 31
0.0
  0
LINE
  8
DETAIL
  6
CONTINUOUS
 62
     5
 10
-270.44999997527202
 20
639.99978823499964
 30
0.0
 11
-228.39999997527269
 21
639.99978810420055
 31
0.0
  0
LINE
  8
DETAIL
  6
CONTINUOUS
 62
     5
 10
-203.39999997527269
 20
639.99978810420055
 30
0.0
 11
-147.49999997527351
 21
639.99978810420055
 31
0.0
  0
LINE
  8
DETAIL
  6
CONTINUOUS
 62
     5
 10
-122.4999999752735
 20
639.99978810420055
 30
0.0
 11
-75.499999975273113
 21
639.99978810269988
 31
0.0
  0
LINE
  8
DETAIL
  6
CONTINUOUS
 62
     5
 10
-124.1848070371729
 20
639.99999999999966
 30
0.0
 11
-145.8151929133719
 21
639.99999999999966
 31
0.0
  0
LINE
  8
DETAIL
  6
CONTINUOUS
 62
     5
 10
-205.0848070371722
 20
639.99999999999966
 30
0.0
 11
-226.71519291337339
 21
639.99999999999966
 31
0.0
  0
LINE
  8
DETAIL
  6
CONTINUOUS
 62
     5
 10
-30.499999975273109
 20
614.70948737253343
 30
0.0
 11
-22.499999975273571
 21
614.50000000000057
 31
0.0
  0
LINE
  8
DETAIL
  6
CONTINUOUS
 62
     5
 10
-62.148531039272711
 20
641.64852703379995
 30
0.0
 11
-60.675526031373472
 21
640.17552158139983
 31
0.0
  0
LINE
  8
DETAIL
  6
CONTINUOUS
 62
     5
 10
-287.90294257147298
 20
642.00000000000068
 30
0.0
 11
-223.89705855787309
 21
642.00000000000068
 31
0.0
  0
LINE
  8
DETAIL
  6
CONTINUOUS
 62
     5
 10
-207.90294139277239
 20
642.00000000000068
 30
0.0
 11
-142.9970585578717
 21
642.00000000000068
 31
0.0
  0
LINE
  8
DETAIL
  6
CONTINUOUS
 62
     5
 10
-127.0029413927732
 20
642.00000000000068
 30
0.0
 11
-62.997058265173571
 21
642.00000000000068
 31
0.0
  0
LINE
  8
DETAIL
  6
CONTINUOUS
 62
     5
 10
-22.499999975273571
 20
614.50000000000057
 30
0.0
 11
-7.5002472566739007
 21
610.48082837240031
 31
0.0
  0
ARC
  8
DETAIL
  6
CONTINUOUS
 62
     5
 10
-312.95914331327191
 20
4.6000000000003629
 30
0.0
 40
1.0
 50
289.99976323485453
 51
330.00000000001398
  0
ARC
  8
DETAIL
  6
CONTINUOUS
 62
     5
 10
-349.79999997527381
 20
1.7999999999994989
 30
0.0
 40
1.8
 50
90.0
 51
270.01899414416079
  0
ARC
  8
DETAIL
  6
CONTINUOUS
 62
     5
 10
-258.69999997527248
 20
1.7999999999994989
 30
0.0
 40
1.8
 50
270.0
 51
90.0
  0
ARC
  8
DETAIL
  6
CONTINUOUS
 62
     5
 10
-89.959143313272307
 20
4.6000000000003629
 30
0.0
 40
1.0
 50
270.0
 51
330.00000000001398
  0
ARC
  8
DETAIL
  6
CONTINUOUS
 62
     5
 10
-38.640856637373872
 20
4.6000000000003629
 30
0.0
 40
1.0
 50
209.99999999998599
 51
249.9999025658262
  0
ARC
  8
DETAIL
  6
CONTINUOUS
 62
     5
 10
-92.899999975273204
 20
1.7999999999994989
 30
0.0
 40
1.8
 50
90.0
 51
270.0
  0
ARC
  8
DETAIL
  6
CONTINUOUS
 62
     5
 10
-1.79999997527193
 20
1.7999999999994989
 30
0.0
 40
1.8
 50
269.98100585583921
 51
90.0
  0
ARC
  8
DETAIL
  6
CONTINUOUS
 62
     5
 10
-221.151471837873
 20
640.60000000000048
 30
0.0
 40
0.6
 50
224.9997951148766
 51
269.99943797056369
  0
ARC
  8
DETAIL
  6
CONTINUOUS
 62
     5
 10
-35.499999975273113
 20
631.35430545310078
 30
0.0
 40
5.0
 50
0.0000031512345473
 51
73.376157075542238
  0
ARC
  8
DETAIL
  6
CONTINUOUS
 62
     5
 10
-315.3999999752732
 20
631.35430563610021
 30
0.0
 40
5.0
 50
106.6238435244418
 51
179.99999894620129
  0
ARC
  8
DETAIL
  6
CONTINUOUS
 62
     5
 10
-290.64873895227311
 20
640.59978672129967
 30
0.0
 40
0.6
 50
270.122855570132
 51
314.99991992875562
  0
ARC
  8
DETAIL
  6
CONTINUOUS
 62
     5
 10
-140.25147183787379
 20
640.60000000000048
 30
0.0
 40
0.6
 50
224.9997951148766
 51
269.99971898463048
  0
ARC
  8
DETAIL
  6
CONTINUOUS
 62
     5
 10
-210.64852222717309
 20
640.60000000000048
 30
0.0
 40
0.6
 50
269.99971898580287
 51
314.99980746867641
  0
ARC
  8
DETAIL
  6
CONTINUOUS
 62
     5
 10
-60.251263038072011
 20
640.59978672569991
 30
0.0
 40
0.6
 50
225.00014524587189
 51
269.8772424495246
  0
ARC
  8
DETAIL
  6
CONTINUOUS
 62
     5
 10
-129.74852222717161
 20
640.60000000000048
 30
0.0
 40
0.6
 50
269.99971898580287
 51
314.99980746867641
  0
ARC
  8
DETAIL
  6
CONTINUOUS
 62
     5
 10
-223.89705625017359
 20
640.8000000000003
 30
0.0
 40
1.1999999999999991
 50
45.000071734953089
 51
90.000110183777721
  0
ARC
  8
DETAIL
  6
CONTINUOUS
 62
     5
 10
-287.90294144237168
 20
640.8000000000003
 30
0.0
 40
1.1999999999999991
 50
90.000053906577037
 51
135.00004076119049
  0
ARC
  8
DETAIL
  6
CONTINUOUS
 62
     5
 10
-142.99705625017211
 20
640.8000000000003
 30
0.0
 40
1.1999999999999991
 50
45.000071734953089
 51
90.000110183777721
  0
ARC
  8
DETAIL
  6
CONTINUOUS
 62
     5
 10
-207.9029390850728
 20
640.8000000000003
 30
0.0
 40
1.1999999999999991
 50
90.000110183256623
 51
135.00009644012999
  0
ARC
  8
DETAIL
  6
CONTINUOUS
 62
     5
 10
-62.997056250172143
 20
640.8000000000003
 30
0.0
 40
1.1999999999999991
 50
45.000065870031598
 51
90.000096211467678
  0
ARC
  8
DETAIL
  6
CONTINUOUS
 62
     5
 10
-127.00293908507361
 20
640.8000000000003
 30
0.0
 40
1.1999999999999991
 50
90.000110183256623
 51
135.00009644012999
  0
ARC
  8
DETAIL
  6
CONTINUOUS
 62
     5
 10
-257.54314572577232
 20
8.2000000000005002
 30
0.0
 40
5.2000000000000002
 50
224.9999999962692
 51
242.34765263827899
  0
ARC
  8
DETAIL
  6
CONTINUOUS
 62
     5
 10
-301.14314572577359
 20
13.2000000000005
 30
0.0
 40
5.2000000000000002
 50
225.00000000005519
 51
270.0
  0
ARC
  8
DETAIL
  6
CONTINUOUS
 62
     5
 10
-49.756854224772731
 20
13.2000000000005
 30
0.0
 40
5.2000000000000002
 50
270.0
 51
314.99999999994469
  0
ARC
  8
DETAIL
  6
CONTINUOUS
 62
     5
 10
-309.95391049967378
 20
8.9999999999997726
 30
0.0
 40
4.0
 50
45.000000000055273
 51
58.346124010658677
  0
ARC
  8
DETAIL
  6
CONTINUOUS
 62
     5
 10
-40.946089450972522
 20
8.9999999999997726
 30
0.0
 40
4.0
 50
121.6538759893413
 51
134.99999999994469
  0
ARC
  8
DETAIL
  6
CONTINUOUS
 62
     5
 10
-330.3999999752732
 20
46.513525438000443
 30
0.0
 40
2.0
 50
180.0
 51
269.5000000000345
  0
ARC
  8
DETAIL
  6
CONTINUOUS
 62
     5
 10
1766.620000024727
 20
313.40000000000032
 30
0.0
 40
2100.02
 50
178.232188736094
 51
181.76781126390591
  0
ARC
  8
DETAIL
  6
CONTINUOUS
 62
     5
 10
-330.3999999752732
 20
580.28647456190015
 30
0.0
 40
2.0
 50
90.499999999965524
 51
180.0
  0
ARC
  8
DETAIL
  6
CONTINUOUS
 62
     5
 10
-105.6999999752729
 20
575.50000000000057
 30
0.0
 40
15.0
 50
0.0
 51
90.0
  0
ARC
  8
DETAIL
  6
CONTINUOUS
 62
     5
 10
-238.1999999752729
 20
575.50000000000057
 30
0.0
 40
15.0
 50
90.0
 51
180.0
  0
POLYLINE
  8
DETAIL
  6
CONTINUOUS
 62
     5
 66
     1
 10
0.0
 20
0.0
 30
0.0
  0
VERTEX
  8
DETAIL
  6
CONTINUOUS
 62
     5
 10
-316.8304357339735
 20
636.14532373480074
 30
0.0
  0
VERTEX
  8
DETAIL
  6
CONTINUOUS
 62
     5
 10
-316.10255646468437
 20
636.35938591762147
 30
0.0
  0
VERTEX
  8
DETAIL
  6
CONTINUOUS
 62
     5
 10
-315.37287936462263
 20
636.56747104486521
 30
0.0
  0
VERTEX
  8
DETAIL
  6
CONTINUOUS
 62
     5
 10
-314.64147892384977
 20
636.76955990146007
 30
0.0
  0
VERTEX
  8
DETAIL
  6
CONTINUOUS
 62
     5
 10
-313.90842963242716
 20
636.96563327233332
 30
0.0
  0
VERTEX
  8
DETAIL
  6
CONTINUOUS
 62
     5
 10
-313.17380598041592
 20
637.1556719424126
 30
0.0
  0
VERTEX
  8
DETAIL
  6
CONTINUOUS
 62
     5
 10
-312.4376824578776
 20
637.33965669662575
 30
0.0
  0
VERTEX
  8
DETAIL
  6
CONTINUOUS
 62
     5
 10
-311.7001335548735
 20
637.51756831990065
 30
0.0
  0
SEQEND
  8
DETAIL
  6
CONTINUOUS
 62
     5
  0
POLYLINE
  8
DETAIL
  6
CONTINUOUS
 62
     5
 66
     1
 10
0.0
 20
0.0
 30
0.0
  0
VERTEX
  8
DETAIL
  6
CONTINUOUS
 62
     5
 10
-311.7001335548735
 20
637.51756831990065
 30
0.0
  0
VERTEX
  8
DETAIL
  6
CONTINUOUS
 62
     5
 10
-310.96114711511524
 20
637.68940836414151
 30
0.0
  0
VERTEX
  8
DETAIL
  6
CONTINUOUS
 62
     5
 10
-310.22070982395104
 20
637.85517965457996
 30
0.0
  0
VERTEX
  8
DETAIL
  6
CONTINUOUS
 62
     5
 10
-309.47889668729596
 20
638.01486435233483
 30
0.0
  0
VERTEX
  8
DETAIL
  6
CONTINUOUS
 62
     5
 10
-308.73578271106544
 20
638.16844461852531
 30
0.0
  0
VERTEX
  8
DETAIL
  6
CONTINUOUS
 62
     5
 10
-307.99144290117454
 20
638.31590261427039
 30
0.0
  0
VERTEX
  8
DETAIL
  6
CONTINUOUS
 62
     5
 10
-307.2459522635387
 20
638.45722050068912
 30
0.0
  0
VERTEX
  8
DETAIL
  6
CONTINUOUS
 62
     5
 10
-306.49938580407297
 20
638.59238043890059
 30
0.0
  0
SEQEND
  8
DETAIL
  6
CONTINUOUS
 62
     5
  0
POLYLINE
  8
DETAIL
  6
CONTINUOUS
 62
     5
 66
     1
 10
0.0
 20
0.0
 30
0.0
  0
VERTEX
  8
DETAIL
  6
CONTINUOUS
 62
     5
 10
-306.49938580407297
 20
638.59238043890059
 30
0.0
  0
VERTEX
  8
DETAIL
  6
CONTINUOUS
 62
     5
 10
-305.84524308344521
 20
638.70559416826177
 30
0.0
  0
VERTEX
  8
DETAIL
  6
CONTINUOUS
 62
     5
 10
-305.19027355128446
 20
638.81408897819222
 30
0.0
  0
VERTEX
  8
DETAIL
  6
CONTINUOUS
 62
     5
 10
-304.53450292103065
 20
638.91786088582467
 30
0.0
  0
VERTEX
  8
DETAIL
  6
CONTINUOUS
 62
     5
 10
-303.87797977151575
 20
639.01690498208563
 30
0.0
  0
VERTEX
  8
DETAIL
  6
CONTINUOUS
 62
     5
 10
-303.22075304106608
 20
639.11121634333927
 30
0.0
  0
VERTEX
  8
DETAIL
  6
CONTINUOUS
 62
     5
 10
-302.56287166800826
 20
639.20079004595027
 30
0.0
  0
VERTEX
  8
DETAIL
  6
CONTINUOUS
 62
     5
 10
-301.9043845906686
 20
639.28562116628257
 30
0.0
  0
VERTEX
  8
DETAIL
  6
CONTINUOUS
 62
     5
 10
-301.24534074737358
 20
639.36570478070075
 30
0.0
  0
SEQEND
  8
DETAIL
  6
CONTINUOUS
 62
     5
  0
POLYLINE
  8
DETAIL
  6
CONTINUOUS
 62
     5
 66
     1
 10
0.0
 20
0.0
 30
0.0
  0
VERTEX
  8
DETAIL
  6
CONTINUOUS
 62
     5
 10
-301.24534074737358
 20
639.36570478070075
 30
0.0
  0
VERTEX
  8
DETAIL
  6
CONTINUOUS
 62
     5
 10
-300.49149443858812
 20
639.45141335680273
 30
0.0
  0
VERTEX
  8
DETAIL
  6
CONTINUOUS
 62
     5
 10
-299.73690503007913
 20
639.53092615997389
 30
0.0
  0
VERTEX
  8
DETAIL
  6
CONTINUOUS
 62
     5
 10
-298.98164916158089
 20
639.60423668979831
 30
0.0
  0
VERTEX
  8
DETAIL
  6
CONTINUOUS
 62
     5
 10
-298.22580347282718
 20
639.67133844585942
 30
0.0
  0
VERTEX
  8
DETAIL
  6
CONTINUOUS
 62
     5
 10
-297.46944460355195
 20
639.73222492774096
 30
0.0
  0
VERTEX
  8
DETAIL
  6
CONTINUOUS
 62
     5
 10
-296.71264919348926
 20
639.78688963502657
 30
0.0
  0
VERTEX
  8
DETAIL
  6
CONTINUOUS
 62
     5
 10
-295.95549388237299
 20
639.83532606729989
 30
0.0
  0
SEQEND
  8
DETAIL
  6
CONTINUOUS
 62
     5
  0
POLYLINE
  8
DETAIL
  6
CONTINUOUS
 62
     5
 66
     1
 10
0.0
 20
0.0
 30
0.0
  0
VERTEX
  8
DETAIL
  6
CONTINUOUS
 62
     5
 10
-295.95549388237299
 20
639.83532606729989
 30
0.0
  0
VERTEX
  8
DETAIL
  6
CONTINUOUS
 62
     5
 10
-295.197965689206
 20
639.87753331299461
 30
0.0
  0
VERTEX
  8
DETAIL
  6
CONTINUOUS
 62
     5
 10
-294.44005169690331
 20
639.9135114343768
 30
0.0
  0
VERTEX
  8
DETAIL
  6
CONTINUOUS
 62
     5
 10
-293.68182890505688
 20
639.94325537597263
 30
0.0
  0
VERTEX
  8
DETAIL
  6
CONTINUOUS
 62
     5
 10
-292.92337431325865
 20
639.96676008230725
 30
0.0
  0
VERTEX
  8
DETAIL
  6
CONTINUOUS
 62
     5
 10
-292.16476492110058
 20
639.98402049790627
 30
0.0
  0
VERTEX
  8
DETAIL
  6
CONTINUOUS
 62
     5
 10
-291.40607772817452
 20
639.9950315672952
 30
0.0
  0
VERTEX
  8
DETAIL
  6
CONTINUOUS
 62
     5
 10
-290.64738973407248
 20
639.99978823499964
 30
0.0
  0
SEQEND
  8
DETAIL
  6
CONTINUOUS
 62
     5
  0
POLYLINE
  8
DETAIL
  6
CONTINUOUS
 62
     5
 66
     1
 10
0.0
 20
0.0
 30
0.0
  0
VERTEX
  8
DETAIL
  6
CONTINUOUS
 62
     5
 10
-290.64738973407248
 20
639.99978823499964
 30
0.0
  0
VERTEX
  8
DETAIL
  6
CONTINUOUS
 62
     5
 10
-290.40649644268211
 20
639.9997849514516
 30
0.0
  0
VERTEX
  8
DETAIL
  6
CONTINUOUS
 62
     5
 10
-290.16560323307425
 20
639.99983970832034
 30
0.0
  0
VERTEX
  8
DETAIL
  6
CONTINUOUS
 62
     5
 10
-289.92470995193867
 20
639.99983368920073
 30
0.0
  0
VERTEX
  8
DETAIL
  6
CONTINUOUS
 62
     5
 10
-289.68381667922495
 20
639.9998334826347
 30
0.0
  0
VERTEX
  8
DETAIL
  6
CONTINUOUS
 62
     5
 10
-289.44292342325002
 20
639.99984624655258
 30
0.0
  0
VERTEX
  8
DETAIL
  6
CONTINUOUS
 62
     5
 10
-289.20203016748741
 20
639.9998585582033
 30
0.0
  0
VERTEX
  8
DETAIL
  6
CONTINUOUS
 62
     5
 10
-288.96113690610559
 20
639.99986573801345
 30
0.0
  0
VERTEX
  8
DETAIL
  6
CONTINUOUS
 62
     5
 10
-288.72024364212314
 20
639.99987034191156
 30
0.0
  0
VERTEX
  8
DETAIL
  6
CONTINUOUS
 62
     5
 10
-288.47935037868251
 20
639.99987502419094
 30
0.0
  0
VERTEX
  8
DETAIL
  6
CONTINUOUS
 62
     5
 10
-288.23845711671999
 20
639.99988059348152
 30
0.0
  0
VERTEX
  8
DETAIL
  6
CONTINUOUS
 62
     5
 10
-287.9975638554331
 20
639.9998864034726
 30
0.0
  0
VERTEX
  8
DETAIL
  6
CONTINUOUS
 62
     5
 10
-287.7566705939721
 20
639.9998917684004
 30
0.0
  0
SEQEND
  8
DETAIL
  6
CONTINUOUS
 62
     5
  0
POLYLINE
  8
DETAIL
  6
CONTINUOUS
 62
     5
 66
     1
 10
0.0
 20
0.0
 30
0.0
  0
VERTEX
  8
DETAIL
  6
CONTINUOUS
 62
     5
 10
-287.7566705939721
 20
639.9998917684004
 30
0.0
  0
VERTEX
  8
DETAIL
  6
CONTINUOUS
 62
     5
 10
-287.17920410692443
 20
639.9999012055797
 30
0.0
  0
VERTEX
  8
DETAIL
  6
CONTINUOUS
 62
     5
 10
-286.60173761982509
 20
639.99990700790624
 30
0.0
  0
VERTEX
  8
DETAIL
  6
CONTINUOUS
 62
     5
 10
-286.02427113271159
 20
639.99991062497986
 30
0.0
  0
VERTEX
  8
DETAIL
  6
CONTINUOUS
 62
     5
 10
-285.44680464559065
 20
639.99991265318545
 30
0.0
  0
VERTEX
  8
DETAIL
  6
CONTINUOUS
 62
     5
 10
-284.86933815846606
 20
639.99991344593377
 30
0.0
  0
VERTEX
  8
DETAIL
  6
CONTINUOUS
 62
     5
 10
-284.29187167134103
 20
639.99991322084702
 30
0.0
  0
VERTEX
  8
DETAIL
  6
CONTINUOUS
 62
     5
 10
-283.7144051842173
 20
639.9999120761272
 30
0.0
  0
VERTEX
  8
DETAIL
  6
CONTINUOUS
 62
     5
 10
-283.13693869709618
 20
639.99991004338563
 30
0.0
  0
VERTEX
  8
DETAIL
  6
CONTINUOUS
 62
     5
 10
-282.55947220997871
 20
639.99990710248358
 30
0.0
  0
VERTEX
  8
DETAIL
  6
CONTINUOUS
 62
     5
 10
-281.9820057228664
 20
639.99990319537278
 30
0.0
  0
VERTEX
  8
DETAIL
  6
CONTINUOUS
 62
     5
 10
-281.40453923576263
 20
639.99989817380413
 30
0.0
  0
VERTEX
  8
DETAIL
  6
CONTINUOUS
 62
     5
 10
-280.82707274867329
 20
639.9998917684004
 30
0.0
  0
SEQEND
  8
DETAIL
  6
CONTINUOUS
 62
     5
  0
POLYLINE
  8
DETAIL
  6
CONTINUOUS
 62
     5
 66
     1
 10
0.0
 20
0.0
 30
0.0
  0
VERTEX
  8
DETAIL
  6
CONTINUOUS
 62
     5
 10
-280.82707274867329
 20
639.9998917684004
 30
0.0
  0
VERTEX
  8
DETAIL
  6
CONTINUOUS
 62
     5
 10
-279.96231668424383
 20
639.99988112840583
 30
0.0
  0
VERTEX
  8
DETAIL
  6
CONTINUOUS
 62
     5
 10
-279.09756061981375
 20
639.99987053038114
 30
0.0
  0
VERTEX
  8
DETAIL
  6
CONTINUOUS
 62
     5
 10
-278.23280455538122
 20
639.99986013502451
 30
0.0
  0
VERTEX
  8
DETAIL
  6
CONTINUOUS
 62
     5
 10
-277.36804849094551
 20
639.99985000756021
 30
0.0
  0
VERTEX
  8
DETAIL
  6
CONTINUOUS
 62
     5
 10
-276.50329242650594
 20
639.99984020960369
 30
0.0
  0
VERTEX
  8
DETAIL
  6
CONTINUOUS
 62
     5
 10
-275.63853636206176
 20
639.9998308319208
 30
0.0
  0
VERTEX
  8
DETAIL
  6
CONTINUOUS
 62
     5
 10
-274.77378029761212
 20
639.99982196513713
 30
0.0
  0
VERTEX
  8
DETAIL
  6
CONTINUOUS
 62
     5
 10
-273.90902423315669
 20
639.99981368909607
 30
0.0
  0
VERTEX
  8
DETAIL
  6
CONTINUOUS
 62
     5
 10
-273.04426816869506
 20
639.99980608830367
 30
0.0
  0
VERTEX
  8
DETAIL
  6
CONTINUOUS
 62
     5
 10
-272.17951210422689
 20
639.99979926657056
 30
0.0
  0
VERTEX
  8
DETAIL
  6
CONTINUOUS
 62
     5
 10
-271.31475603975218
 20
639.99979331184534
 30
0.0
  0
VERTEX
  8
DETAIL
  6
CONTINUOUS
 62
     5
 10
-270.44999997527202
 20
639.99978823499964
 30
0.0
  0
SEQEND
  8
DETAIL
  6
CONTINUOUS
 62
     5
  0
POLYLINE
  8
DETAIL
  6
CONTINUOUS
 62
     5
 66
     1
 10
0.0
 20
0.0
 30
0.0
  0
VERTEX
  8
DETAIL
  6
CONTINUOUS
 62
     5
 10
-228.39999997527269
 20
639.99978810420055
 30
0.0
  0
VERTEX
  8
DETAIL
  6
CONTINUOUS
 62
     5
 10
-228.21279918896155
 20
639.99979358361963
 30
0.0
  0
VERTEX
  8
DETAIL
  6
CONTINUOUS
 62
     5
 10
-228.02559840303192
 20
639.99980854600835
 30
0.0
  0
VERTEX
  8
DETAIL
  6
CONTINUOUS
 62
     5
 10
-227.83839761807695
 20
639.99983210879691
 30
0.0
  0
VERTEX
  8
DETAIL
  6
CONTINUOUS
 62
     5
 10
-227.65119683445135
 20
639.99986296622967
 30
0.0
  0
VERTEX
  8
DETAIL
  6
CONTINUOUS
 62
     5
 10
-227.46399605152061
 20
639.99989805454652
 30
0.0
  0
VERTEX
  8
DETAIL
  6
CONTINUOUS
 62
     5
 10
-227.27679526839324
 20
639.99993385354844
 30
0.0
  0
VERTEX
  8
DETAIL
  6
CONTINUOUS
 62
     5
 10
-227.08959448433464
 20
639.99996648024921
 30
0.0
  0
VERTEX
  8
DETAIL
  6
CONTINUOUS
 62
     5
 10
-226.90239369928656
 20
639.99999048602569
 30
0.0
  0
VERTEX
  8
DETAIL
  6
CONTINUOUS
 62
     5
 10
-226.71519291337339
 20
639.99999999999966
 30
0.0
  0
SEQEND
  8
DETAIL
  6
CONTINUOUS
 62
     5
  0
POLYLINE
  8
DETAIL
  6
CONTINUOUS
 62
     5
 66
     1
 10
0.0
 20
0.0
 30
0.0
  0
VERTEX
  8
DETAIL
  6
CONTINUOUS
 62
     5
 10
-205.0848070371722
 20
639.99999999999966
 30
0.0
  0
VERTEX
  8
DETAIL
  6
CONTINUOUS
 62
     5
 10
-204.89760625125925
 20
639.99999048528105
 30
0.0
  0
VERTEX
  8
DETAIL
  6
CONTINUOUS
 62
     5
 10
-204.71040546621174
 20
639.99996648064007
 30
0.0
  0
VERTEX
  8
DETAIL
  6
CONTINUOUS
 62
     5
 10
-204.52320468215262
 20
639.999933853676
 30
0.0
  0
VERTEX
  8
DETAIL
  6
CONTINUOUS
 62
     5
 10
-204.33600389902421
 20
639.99989805306677
 30
0.0
  0
VERTEX
  8
DETAIL
  6
CONTINUOUS
 62
     5
 10
-204.14880311609284
 20
639.99986296494035
 30
0.0
  0
VERTEX
  8
DETAIL
  6
CONTINUOUS
 62
     5
 10
-203.96160233246755
 20
639.99983211118774
 30
0.0
  0
VERTEX
  8
DETAIL
  6
CONTINUOUS
 62
     5
 10
-203.77440154751307
 20
639.99980855645526
 30
0.0
  0
VERTEX
  8
DETAIL
  6
CONTINUOUS
 62
     5
 10
-203.58720076158372
 20
639.99979359757378
 30
0.0
  0
VERTEX
  8
DETAIL
  6
CONTINUOUS
 62
     5
 10
-203.39999997527269
 20
639.99978810420055
 30
0.0
  0
SEQEND
  8
DETAIL
  6
CONTINUOUS
 62
     5
  0
POLYLINE
  8
DETAIL
  6
CONTINUOUS
 62
     5
 66
     1
 10
0.0
 20
0.0
 30
0.0
  0
VERTEX
  8
DETAIL
  6
CONTINUOUS
 62
     5
 10
-147.49999997527351
 20
639.99978810420055
 30
0.0
  0
VERTEX
  8
DETAIL
  6
CONTINUOUS
 62
     5
 10
-147.31279918896212
 20
639.99979358361975
 30
0.0
  0
VERTEX
  8
DETAIL
  6
CONTINUOUS
 62
     5
 10
-147.1255984030322
 20
639.99980854600835
 30
0.0
  0
VERTEX
  8
DETAIL
  6
CONTINUOUS
 62
     5
 10
-146.93839761807692
 20
639.99983210879691
 30
0.0
  0
VERTEX
  8
DETAIL
  6
CONTINUOUS
 62
     5
 10
-146.75119683445104
 20
639.99986296622944
 30
0.0
  0
VERTEX
  8
DETAIL
  6
CONTINUOUS
 62
     5
 10
-146.56399605152006
 20
639.99989805454652
 30
0.0
  0
VERTEX
  8
DETAIL
  6
CONTINUOUS
 62
     5
 10
-146.3767952683925
 20
639.99993385354844
 30
0.0
  0
VERTEX
  8
DETAIL
  6
CONTINUOUS
 62
     5
 10
-146.1895944843337
 20
639.99996648024933
 30
0.0
  0
VERTEX
  8
DETAIL
  6
CONTINUOUS
 62
     5
 10
-146.00239369928542
 20
639.99999048602581
 30
0.0
  0
VERTEX
  8
DETAIL
  6
CONTINUOUS
 62
     5
 10
-145.8151929133719
 20
639.99999999999966
 30
0.0
  0
SEQEND
  8
DETAIL
  6
CONTINUOUS
 62
     5
  0
POLYLINE
  8
DETAIL
  6
CONTINUOUS
 62
     5
 66
     1
 10
0.0
 20
0.0
 30
0.0
  0
VERTEX
  8
DETAIL
  6
CONTINUOUS
 62
     5
 10
-124.1848070371729
 20
639.99999999999966
 30
0.0
  0
VERTEX
  8
DETAIL
  6
CONTINUOUS
 62
     5
 10
-123.99760625126008
 20
639.99999048528105
 30
0.0
  0
VERTEX
  8
DETAIL
  6
CONTINUOUS
 62
     5
 10
-123.81040546621249
 20
639.99996648064007
 30
0.0
  0
VERTEX
  8
DETAIL
  6
CONTINUOUS
 62
     5
 10
-123.62320468215337
 20
639.99993385367611
 30
0.0
  0
VERTEX
  8
DETAIL
  6
CONTINUOUS
 62
     5
 10
-123.43600389902495
 20
639.99989805306666
 30
0.0
  0
VERTEX
  8
DETAIL
  6
CONTINUOUS
 62
     5
 10
-123.24880311609365
 20
639.99986296494046
 30
0.0
  0
VERTEX
  8
DETAIL
  6
CONTINUOUS
 62
     5
 10
-123.06160233246831
 20
639.99983211118774
 30
0.0
  0
VERTEX
  8
DETAIL
  6
CONTINUOUS
 62
     5
 10
-122.87440154751387
 20
639.99980855645549
 30
0.0
  0
VERTEX
  8
DETAIL
  6
CONTINUOUS
 62
     5
 10
-122.68720076158448
 20
639.99979359757378
 30
0.0
  0
SEQEND
  8
DETAIL
  6
CONTINUOUS
 62
     5
  0
POLYLINE
  8
DETAIL
  6
CONTINUOUS
 62
     5
 66
     1
 10
0.0
 20
0.0
 30
0.0
  0
VERTEX
  8
DETAIL
  6
CONTINUOUS
 62
     5
 10
-75.449999975272021
 20
639.99978828260066
 30
0.0
  0
VERTEX
  8
DETAIL
  6
CONTINUOUS
 62
     5
 10
-74.802590279742788
 20
639.99979325346476
 30
0.0
  0
VERTEX
  8
DETAIL
  6
CONTINUOUS
 62
     5
 10
-74.155180584219949
 20
639.99979900394453
 30
0.0
  0
VERTEX
  8
DETAIL
  6
CONTINUOUS
 62
     5
 10
-73.507770888704258
 20
639.99980550863279
 30
0.0
  0
VERTEX
  8
DETAIL
  6
CONTINUOUS
 62
     5
 10
-72.860361193195729
 20
639.9998126896478
 30
0.0
  0
VERTEX
  8
DETAIL
  6
CONTINUOUS
 62
     5
 10
-72.212951497694149
 20
639.99982047179162
 30
0.0
  0
VERTEX
  8
DETAIL
  6
CONTINUOUS
 62
     5
 10
-71.565541802199277
 20
639.9998287912457
 30
0.0
  0
VERTEX
  8
DETAIL
  6
CONTINUOUS
 62
     5
 10
-70.918132106710686
 20
639.99983758485257
 30
0.0
  0
VERTEX
  8
DETAIL
  6
CONTINUOUS
 62
     5
 10
-70.270722411227808
 20
639.99984678905651
 30
0.0
  0
VERTEX
  8
DETAIL
  6
CONTINUOUS
 62
     5
 10
-69.623312715749918
 20
639.99985633731808
 30
0.0
  0
VERTEX
  8
DETAIL
  6
CONTINUOUS
 62
     5
 10
-68.975903020276164
 20
639.99986616090848
 30
0.0
  0
VERTEX
  8
DETAIL
  6
CONTINUOUS
 62
     5
 10
-68.328493324805962
 20
639.99987621542175
 30
0.0
  0
VERTEX
  8
DETAIL
  6
CONTINUOUS
 62
     5
 10
-67.681083629338858
 20
639.9998864669559
 30
0.0
  0
VERTEX
  8
DETAIL
  6
CONTINUOUS
 62
     5
 10
-67.033673933872706
 20
639.99989677979988
 30
0.0
  0
SEQEND
  8
DETAIL
  6
CONTINUOUS
 62
     5
  0
POLYLINE
  8
DETAIL
  6
CONTINUOUS
 62
     5
 66
     1
 10
0.0
 20
0.0
 30
0.0
  0
VERTEX
  8
DETAIL
  6
CONTINUOUS
 62
     5
 10
-67.033673933872706
 20
639.99989677979988
 30
0.0
  0
VERTEX
  8
DETAIL
  6
CONTINUOUS
 62
     5
 10
-66.650474994385419
 20
639.99990222530209
 30
0.0
  0
VERTEX
  8
DETAIL
  6
CONTINUOUS
 62
     5
 10
-66.267276054880654
 20
639.99990636736186
 30
0.0
  0
VERTEX
  8
DETAIL
  6
CONTINUOUS
 62
     5
 10
-65.884077115366054
 20
639.999909461058
 30
0.0
  0
VERTEX
  8
DETAIL
  6
CONTINUOUS
 62
     5
 10
-65.500878175846239
 20
639.99991165821598
 30
0.0
  0
VERTEX
  8
DETAIL
  6
CONTINUOUS
 62
     5
 10
-65.117679236322488
 20
639.99991299864359
 30
0.0
  0
VERTEX
  8
DETAIL
  6
CONTINUOUS
 62
     5
 10
-64.734480296796377
 20
639.99991348823085
 30
0.0
  0
VERTEX
  8
DETAIL
  6
CONTINUOUS
 62
     5
 10
-64.351281357270594
 20
639.99991304551997
 30
0.0
  0
VERTEX
  8
DETAIL
  6
CONTINUOUS
 62
     5
 10
-63.968082417748128
 20
639.99991154802751
 30
0.0
  0
VERTEX
  8
DETAIL
  6
CONTINUOUS
 62
     5
 10
-63.584883478231575
 20
639.99990873057709
 30
0.0
  0
VERTEX
  8
DETAIL
  6
CONTINUOUS
 62
     5
 10
-63.201684538727989
 20
639.99990417270533
 30
0.0
  0
VERTEX
  8
DETAIL
  6
CONTINUOUS
 62
     5
 10
-62.818485599273572
 20
639.99989677979988
 30
0.0
  0
SEQEND
  8
DETAIL
  6
CONTINUOUS
 62
     5
  0
POLYLINE
  8
DETAIL
  6
CONTINUOUS
 62
     5
 66
     1
 10
0.0
 20
0.0
 30
0.0
  0
VERTEX
  8
DETAIL
  6
CONTINUOUS
 62
     5
 10
-62.818485599273572
 20
639.99989677979988
 30
0.0
  0
VERTEX
  8
DETAIL
  6
CONTINUOUS
 62
     5
 10
-62.621112275739627
 20
639.99989202798713
 30
0.0
  0
VERTEX
  8
DETAIL
  6
CONTINUOUS
 62
     5
 10
-62.423738952168797
 20
639.99988703312704
 30
0.0
  0
VERTEX
  8
DETAIL
  6
CONTINUOUS
 62
     5
 10
-62.226365628792905
 20
639.99988161011231
 30
0.0
  0
VERTEX
  8
DETAIL
  6
CONTINUOUS
 62
     5
 10
-62.028992305829007
 20
639.99987558452597
 30
0.0
  0
VERTEX
  8
DETAIL
  6
CONTINUOUS
 62
     5
 10
-61.831618983016703
 20
639.99986912738666
 30
0.0
  0
VERTEX
  8
DETAIL
  6
CONTINUOUS
 62
     5
 10
-61.6342456595264
 20
639.99986282158557
 30
0.0
  0
VERTEX
  8
DETAIL
  6
CONTINUOUS
 62
     5
 10
-61.436872334552312
 20
639.99985722958957
 30
0.0
  0
VERTEX
  8
DETAIL
  6
CONTINUOUS
 62
     5
 10
-61.239499009458243
 20
639.9998512239091
 30
0.0
  0
VERTEX
  8
DETAIL
  6
CONTINUOUS
 62
     5
 10
-61.042125688396062
 20
639.99984150532237
 30
0.0
  0
VERTEX
  8
DETAIL
  6
CONTINUOUS
 62
     5
 10
-60.844752371636488
 20
639.99982770440965
 30
0.0
  0
VERTEX
  8
DETAIL
  6
CONTINUOUS
 62
     5
 10
-60.647379040363461
 20
639.99982388049102
 30
0.0
  0
VERTEX
  8
DETAIL
  6
CONTINUOUS
 62
     5
 10
-60.450005710381632
 20
639.9998171085989
 30
0.0
  0
VERTEX
  8
DETAIL
  6
CONTINUOUS
 62
     5
 10
-60.252632397073739
 20
639.99978828260066
 30
0.0
  0
SEQEND
  8
DETAIL
  6
CONTINUOUS
 62
     5
  0
POLYLINE
  8
DETAIL
  6
CONTINUOUS
 62
     5
 66
     1
 10
0.0
 20
0.0
 30
0.0
  0
VERTEX
  8
DETAIL
  6
CONTINUOUS
 62
     5
 10
-34.069564216672923
 20
636.14532373480074
 30
0.0
  0
VERTEX
  8
DETAIL
  6
CONTINUOUS
 62
     5
 10
-37.264533023977322
 20
637.03702368036988
 30
0.0
  0
VERTEX
  8
DETAIL
  6
CONTINUOUS
 62
     5
 10
-40.490696530690684
 20
637.81361798119735
 30
0.0
  0
VERTEX
  8
DETAIL
  6
CONTINUOUS
 62
     5
 10
-43.743874819818693
 20
638.47385835429452
 30
0.0
  0
VERTEX
  8
DETAIL
  6
CONTINUOUS
 62
     5
 10
-47.019861732929215
 20
639.0165189479676
 30
0.0
  0
VERTEX
  8
DETAIL
  6
CONTINUOUS
 62
     5
 10
-50.313934115547745
 20
639.44081584096659
 30
0.0
  0
VERTEX
  8
DETAIL
  6
CONTINUOUS
 62
     5
 10
-53.62089577090746
 20
639.74636947063095
 30
0.0
  0
VERTEX
  8
DETAIL
  6
CONTINUOUS
 62
     5
 10
-56.935533073314176
 20
639.93281517262164
 30
0.0
  0
VERTEX
  8
DETAIL
  6
CONTINUOUS
 62
     5
 10
-60.252632397073739
 20
639.99978828260066
 30
0.0
  0
SEQEND
  8
DETAIL
  6
CONTINUOUS
 62
     5
  0
POLYLINE
  8
DETAIL
  6
CONTINUOUS
 62
     5
 66
     1
 10
0.0
 20
0.0
 30
0.0
  0
VERTEX
  8
DETAIL
  6
CONTINUOUS
 62
     5
 10
-290.64738973407248
 20
639.99978824390041
 30
0.0
  0
VERTEX
  8
DETAIL
  6
CONTINUOUS
 62
     5
 10
-290.60047891988592
 20
640.00173026677442
 30
0.0
  0
VERTEX
  8
DETAIL
  6
CONTINUOUS
 62
     5
 10
-290.55381221889212
 20
640.0073363888248
 30
0.0
  0
VERTEX
  8
DETAIL
  6
CONTINUOUS
 62
     5
 10
-290.50772698432417
 20
640.01657733261948
 30
0.0
  0
VERTEX
  8
DETAIL
  6
CONTINUOUS
 62
     5
 10
-290.46252509343134
 20
640.02939563111011
 30
0.0
  0
VERTEX
  8
DETAIL
  6
CONTINUOUS
 62
     5
 10
-290.41847294759708
 20
640.04570562772653
 30
0.0
  0
VERTEX
  8
DETAIL
  6
CONTINUOUS
 62
     5
 10
-290.37583267020324
 20
640.06541385642299
 30
0.0
  0
VERTEX
  8
DETAIL
  6
CONTINUOUS
 62
     5
 10
-290.33485544236828
 20
640.08840051590425
 30
0.0
  0
VERTEX
  8
DETAIL
  6
CONTINUOUS
 62
     5
 10
-290.29578992944113
 20
640.11453726333787
 30
0.0
  0
VERTEX
  8
DETAIL
  6
CONTINUOUS
 62
     5
 10
-290.2588898516687
 20
640.14365072764542
 30
0.0
  0
VERTEX
  8
DETAIL
  6
CONTINUOUS
 62
     5
 10
-290.22441398417232
 20
640.17552250970095
 30
0.0
  0
SEQEND
  8
DETAIL
  6
CONTINUOUS
 62
     5
  0
POLYLINE
  8
DETAIL
  6
CONTINUOUS
 62
     5
 66
     1
 10
0.0
 20
0.0
 30
0.0
  0
VERTEX
  8
DETAIL
  6
CONTINUOUS
 62
     5
 10
-60.252632397073739
 20
639.99978828260066
 30
0.0
  0
VERTEX
  8
DETAIL
  6
CONTINUOUS
 62
     5
 10
-60.299543122441634
 20
640.0017303440892
 30
0.0
  0
VERTEX
  8
DETAIL
  6
CONTINUOUS
 62
     5
 10
-60.346209730818117
 20
640.00733650772952
 30
0.0
  0
VERTEX
  8
DETAIL
  6
CONTINUOUS
 62
     5
 10
-60.392294867809866
 20
640.01657749523497
 30
0.0
  0
VERTEX
  8
DETAIL
  6
CONTINUOUS
 62
     5
 10
-60.437496655514273
 20
640.0293958382357
 30
0.0
  0
VERTEX
  8
DETAIL
  6
CONTINUOUS
 62
     5
 10
-60.481548692308003
 20
640.04570587844648
 30
0.0
  0
VERTEX
  8
DETAIL
  6
CONTINUOUS
 62
     5
 10
-60.524188854768312
 20
640.06541414800847
 30
0.0
  0
VERTEX
  8
DETAIL
  6
CONTINUOUS
 62
     5
 10
-60.565165962435934
 20
640.08840084358906
 30
0.0
  0
VERTEX
  8
DETAIL
  6
CONTINUOUS
 62
     5
 10
-60.604231350810991
 20
640.114537620286
 30
0.0
  0
VERTEX
  8
DETAIL
  6
CONTINUOUS
 62
     5
 10
-60.641131301163675
 20
640.14365110508311
 30
0.0
  0
VERTEX
  8
DETAIL
  6
CONTINUOUS
 62
     5
 10
-60.675607040573603
 20
640.17552289720027
 30
0.0
  0
SEQEND
  8
DETAIL
  6
CONTINUOUS
 62
     5
  0
POLYLINE
  8
DETAIL
  6
CONTINUOUS
 62
     5
 66
     1
 10
0.0
 20
0.0
 30
0.0
  0
VERTEX
  8
DETAIL
  6
CONTINUOUS
 62
     5
 10
-75.499999975273113
 20
639.99978810269988
 30
0.0
  0
VERTEX
  8
DETAIL
  6
CONTINUOUS
 62
     5
 10
-75.493749975272934
 20
639.9997881060134
 30
0.0
  0
VERTEX
  8
DETAIL
  6
CONTINUOUS
 62
     5
 10
-75.487499975272755
 20
639.99978811559856
 30
0.0
  0
VERTEX
  8
DETAIL
  6
CONTINUOUS
 62
     5
 10
-75.481249975272576
 20
639.99978813088444
 30
0.0
  0
VERTEX
  8
DETAIL
  6
CONTINUOUS
 62
     5
 10
-75.474999975272411
 20
639.99978815130044
 30
0.0
  0
VERTEX
  8
DETAIL
  6
CONTINUOUS
 62
     5
 10
-75.46874997527226
 20
639.99978817642818
 30
0.0
  0
VERTEX
  8
DETAIL
  6
CONTINUOUS
 62
     5
 10
-75.462499975272166
 20
639.99978820645845
 30
0.0
  0
VERTEX
  8
DETAIL
  6
CONTINUOUS
 62
     5
 10
-75.456249975272073
 20
639.99978824173479
 30
0.0
  0
VERTEX
  8
DETAIL
  6
CONTINUOUS
 62
     5
 10
-75.449999975272021
 20
639.99978828260066
 30
0.0
  0
SEQEND
  8
DETAIL
  6
CONTINUOUS
 62
     5
  0
POLYLINE
  8
DETAIL
  6
CONTINUOUS
 62
     5
 66
     1
 10
0.0
 20
0.0
 30
0.0
  0
VERTEX
  8
DETAIL
  6
CONTINUOUS
 62
     5
 10
-111.703116885772
 20
3.006045552000387
 30
0.0
  0
VERTEX
  8
DETAIL
  6
CONTINUOUS
 62
     5
 10
-111.68229238229581
 20
3.0054708324524904
 30
0.0
  0
VERTEX
  8
DETAIL
  6
CONTINUOUS
 62
     5
 10
-111.66146531792481
 20
3.0049798045692317
 30
0.0
  0
VERTEX
  8
DETAIL
  6
CONTINUOUS
 62
     5
 10
-111.64063619683967
 20
3.004572443378553
 30
0.0
  0
VERTEX
  8
DETAIL
  6
CONTINUOUS
 62
     5
 10
-111.61980552322116
 20
3.0042487239083941
 30
0.0
  0
VERTEX
  8
DETAIL
  6
CONTINUOUS
 62
     5
 10
-111.59897380124997
 20
3.0040086211866983
 30
0.0
  0
VERTEX
  8
DETAIL
  6
CONTINUOUS
 62
     5
 10
-111.57814153510682
 20
3.0038521102414055
 30
0.0
  0
VERTEX
  8
DETAIL
  6
CONTINUOUS
 62
     5
 10
-111.5573092289724
 20
3.0037791661004571
 30
0.0
  0
SEQEND
  8
DETAIL
  6
CONTINUOUS
 62
     5
  0
POLYLINE
  8
DETAIL
  6
CONTINUOUS
 62
     5
 66
     1
 10
0.0
 20
0.0
 30
0.0
  0
VERTEX
  8
DETAIL
  6
CONTINUOUS
 62
     5
 10
-111.5573092289724
 20
3.0037791661004571
 30
0.0
  0
VERTEX
  8
DETAIL
  6
CONTINUOUS
 62
     5
 10
-111.55458760884508
 20
3.003775806886388
 30
0.0
  0
VERTEX
  8
DETAIL
  6
CONTINUOUS
 62
     5
 10
-111.55186598639817
 20
3.0037738733887034
 30
0.0
  0
VERTEX
  8
DETAIL
  6
CONTINUOUS
 62
     5
 10
-111.54914436275172
 20
3.0037733655546619
 30
0.0
  0
VERTEX
  8
DETAIL
  6
CONTINUOUS
 62
     5
 10
-111.54642273902584
 20
3.0037742833315253
 30
0.0
  0
VERTEX
  8
DETAIL
  6
CONTINUOUS
 62
     5
 10
-111.54370111634053
 20
3.0037766266665535
 30
0.0
  0
VERTEX
  8
DETAIL
  6
CONTINUOUS
 62
     5
 10
-111.54097949581592
 20
3.003780395507007
 30
0.0
  0
VERTEX
  8
DETAIL
  6
CONTINUOUS
 62
     5
 10
-111.538257878572
 20
3.0037855898001449
 30
0.0
  0
SEQEND
  8
DETAIL
  6
CONTINUOUS
 62
     5
  0
POLYLINE
  8
DETAIL
  6
CONTINUOUS
 62
     5
 66
     1
 10
0.0
 20
0.0
 30
0.0
  0
VERTEX
  8
DETAIL
  6
CONTINUOUS
 62
     5
 10
-259.96323565307239
 20
3.5983813802999971
 30
0.0
  0
VERTEX
  8
DETAIL
  6
CONTINUOUS
 62
     5
 10
-260.10078930690599
 20
3.6732228843677759
 30
0.0
  0
VERTEX
  8
DETAIL
  6
CONTINUOUS
 62
     5
 10
-260.23603311288201
 20
3.7521941793297455
 30
0.0
  0
VERTEX
  8
DETAIL
  6
CONTINUOUS
 62
     5
 10
-260.36883621226781
 20
3.8352174783319
 30
0.0
  0
VERTEX
  8
DETAIL
  6
CONTINUOUS
 62
     5
 10
-260.49907323478078
 20
3.9222146983479682
 30
0.0
  0
VERTEX
  8
DETAIL
  6
CONTINUOUS
 62
     5
 10
-260.62662090130698
 20
4.0131075801149159
 30
0.0
  0
VERTEX
  8
DETAIL
  6
CONTINUOUS
 62
     5
 10
-260.75136704118626
 20
4.1078167753711066
 30
0.0
  0
VERTEX
  8
DETAIL
  6
CONTINUOUS
 62
     5
 10
-260.87320465544821
 20
4.2062624280388849
 30
0.0
  0
VERTEX
  8
DETAIL
  6
CONTINUOUS
 62
     5
 10
-260.99202287152224
 20
4.3083575477354463
 30
0.0
  0
VERTEX
  8
DETAIL
  6
CONTINUOUS
 62
     5
 10
-261.10769738153658
 20
4.4139905918437528
 30
0.0
  0
VERTEX
  8
DETAIL
  6
CONTINUOUS
 62
     5
 10
-261.22010098847392
 20
4.5230447380004071
 30
0.0
  0
SEQEND
  8
DETAIL
  6
CONTINUOUS
 62
     5
  0
POLYLINE
  8
DETAIL
  6
CONTINUOUS
 62
     5
 66
     1
 10
0.0
 20
0.0
 30
0.0
  0
VERTEX
  8
DETAIL
  6
CONTINUOUS
 62
     5
 10
-149.19015633357321
 20
3.0060459955996062
 30
0.0
  0
VERTEX
  8
DETAIL
  6
CONTINUOUS
 62
     5
 10
-149.1804095992668
 20
3.0046371233511144
 30
0.0
  0
VERTEX
  8
DETAIL
  6
CONTINUOUS
 62
     5
 10
-149.17063672665179
 20
3.0034120387297527
 30
0.0
  0
VERTEX
  8
DETAIL
  6
CONTINUOUS
 62
     5
 10
-149.1608415383856
 20
3.0023723666804782
 30
0.0
  0
VERTEX
  8
DETAIL
  6
CONTINUOUS
 62
     5
 10
-149.15102785712554
 20
3.0015197321482461
 30
0.0
  0
VERTEX
  8
DETAIL
  6
CONTINUOUS
 62
     5
 10
-149.14119955447921
 20
3.0008555760183087
 30
0.0
  0
VERTEX
  8
DETAIL
  6
CONTINUOUS
 62
     5
 10
-149.13136070422664
 20
3.0003805789794016
 30
0.0
  0
VERTEX
  8
DETAIL
  6
CONTINUOUS
 62
     5
 10
-149.12151543233526
 20
3.0000952254880833
 30
0.0
  0
VERTEX
  8
DETAIL
  6
CONTINUOUS
 62
     5
 10
-149.1116678647727
 20
3.0000000000006821
 30
0.0
  0
SEQEND
  8
DETAIL
  6
CONTINUOUS
 62
     5
  0
POLYLINE
  8
DETAIL
  6
CONTINUOUS
 62
     5
 66
     1
 10
0.0
 20
0.0
 30
0.0
  0
VERTEX
  8
DETAIL
  6
CONTINUOUS
 62
     5
 10
-239.53072513997361
 20
3.0000000000006821
 30
0.0
  0
VERTEX
  8
DETAIL
  6
CONTINUOUS
 62
     5
 10
-239.52010366993952
 20
3.0000951083150875
 30
0.0
  0
VERTEX
  8
DETAIL
  6
CONTINUOUS
 62
     5
 10
-239.50948432391868
 20
3.0003801609846552
 30
0.0
  0
VERTEX
  8
DETAIL
  6
CONTINUOUS
 62
     5
 10
-239.49887092066902
 20
3.0008547495989184
 30
0.0
  0
VERTEX
  8
DETAIL
  6
CONTINUOUS
 62
     5
 10
-239.48826727894837
 20
3.0015184657472864
 30
0.0
  0
VERTEX
  8
DETAIL
  6
CONTINUOUS
 62
     5
 10
-239.47767717665525
 20
3.0023707337316972
 30
0.0
  0
VERTEX
  8
DETAIL
  6
CONTINUOUS
 62
     5
 10
-239.46710423260691
 20
3.0034103265375887
 30
0.0
  0
VERTEX
  8
DETAIL
  6
CONTINUOUS
 62
     5
 10
-239.45655202691046
 20
3.0046358586614308
 30
0.0
  0
VERTEX
  8
DETAIL
  6
CONTINUOUS
 62
     5
 10
-239.4460241396728
 20
3.0060459445996912
 30
0.0
  0
SEQEND
  8
DETAIL
  6
CONTINUOUS
 62
     5
  0
POLYLINE
  8
DETAIL
  6
CONTINUOUS
 62
     5
 66
     1
 10
0.0
 20
0.0
 30
0.0
  0
VERTEX
  8
DETAIL
  6
CONTINUOUS
 62
     5
 10
-111.5568542248734
 20
3.0000000000006821
 30
0.0
  0
VERTEX
  8
DETAIL
  6
CONTINUOUS
 62
     5
 10
-111.56905122389959
 20
3.0000420223226802
 30
0.0
  0
VERTEX
  8
DETAIL
  6
CONTINUOUS
 62
     5
 10
-111.58124786108316
 20
3.0001680745110342
 30
0.0
  0
VERTEX
  8
DETAIL
  6
CONTINUOUS
 62
     5
 10
-111.59344348520915
 20
3.0003781343992766
 30
0.0
  0
VERTEX
  8
DETAIL
  6
CONTINUOUS
 62
     5
 10
-111.60563744506268
 20
3.0006721798209464
 30
0.0
  0
VERTEX
  8
DETAIL
  6
CONTINUOUS
 62
     5
 10
-111.61782909021207
 20
3.0010501796486229
 30
0.0
  0
VERTEX
  8
DETAIL
  6
CONTINUOUS
 62
     5
 10
-111.63001777334958
 20
3.0015120670184898
 30
0.0
  0
VERTEX
  8
DETAIL
  6
CONTINUOUS
 62
     5
 10
-111.64220284794588
 20
3.0020577661593988
 30
0.0
  0
VERTEX
  8
DETAIL
  6
CONTINUOUS
 62
     5
 10
-111.65438366747181
 20
3.0026872013002039
 30
0.0
  0
SEQEND
  8
DETAIL
  6
CONTINUOUS
 62
     5
  0
POLYLINE
  8
DETAIL
  6
CONTINUOUS
 62
     5
 66
     1
 10
0.0
 20
0.0
 30
0.0
  0
VERTEX
  8
DETAIL
  6
CONTINUOUS
 62
     5
 10
-111.65438366747181
 20
3.0026872013002039
 30
0.0
  0
VERTEX
  8
DETAIL
  6
CONTINUOUS
 62
     5
 10
-111.66135080231906
 20
3.0030849643411428
 30
0.0
  0
VERTEX
  8
DETAIL
  6
CONTINUOUS
 62
     5
 10
-111.66831645457673
 20
3.0035101034579257
 30
0.0
  0
VERTEX
  8
DETAIL
  6
CONTINUOUS
 62
     5
 10
-111.67528046449476
 20
3.0039625932740068
 30
0.0
  0
VERTEX
  8
DETAIL
  6
CONTINUOUS
 62
     5
 10
-111.68224267232327
 20
3.00444240841284
 30
0.0
  0
VERTEX
  8
DETAIL
  6
CONTINUOUS
 62
     5
 10
-111.68920291831229
 20
3.0049495234978787
 30
0.0
  0
VERTEX
  8
DETAIL
  6
CONTINUOUS
 62
     5
 10
-111.69616104271184
 20
3.0054839131525761
 30
0.0
  0
VERTEX
  8
DETAIL
  6
CONTINUOUS
 62
     5
 10
-111.703116885772
 20
3.006045552000387
 30
0.0
  0
SEQEND
  8
DETAIL
  6
CONTINUOUS
 62
     5
  0
POLYLINE
  8
DETAIL
  6
CONTINUOUS
 62
     5
 66
     1
 10
0.0
 20
0.0
 30
0.0
  0
VERTEX
  8
DETAIL
  6
CONTINUOUS
 62
     5
 10
-149.11181521367371
 20
3.007421902899523
 30
0.0
  0
VERTEX
  8
DETAIL
  6
CONTINUOUS
 62
     5
 10
-149.12300314589953
 20
3.0072244396597116
 30
0.0
  0
VERTEX
  8
DETAIL
  6
CONTINUOUS
 62
     5
 10
-149.13419108346773
 20
3.0070272787663419
 30
0.0
  0
VERTEX
  8
DETAIL
  6
CONTINUOUS
 62
     5
 10
-149.14537902635902
 20
3.0068304198223688
 30
0.0
  0
VERTEX
  8
DETAIL
  6
CONTINUOUS
 62
     5
 10
-149.15656697455438
 20
3.006633862430752
 30
0.0
  0
VERTEX
  8
DETAIL
  6
CONTINUOUS
 62
     5
 10
-149.16775492803461
 20
3.0064376061944476
 30
0.0
  0
VERTEX
  8
DETAIL
  6
CONTINUOUS
 62
     5
 10
-149.17894288678056
 20
3.0062416507164134
 30
0.0
  0
VERTEX
  8
DETAIL
  6
CONTINUOUS
 62
     5
 10
-149.1901308507731
 20
3.0060459955996062
 30
0.0
  0
SEQEND
  8
DETAIL
  6
CONTINUOUS
 62
     5
  0
POLYLINE
  8
DETAIL
  6
CONTINUOUS
 62
     5
 66
     1
 10
0.0
 20
0.0
 30
0.0
  0
VERTEX
  8
DETAIL
  6
CONTINUOUS
 62
     5
 10
-162.76090635827171
 20
7.9953495754000414
 30
0.0
  0
VERTEX
  8
DETAIL
  6
CONTINUOUS
 62
     5
 10
-162.76264624906761
 20
7.9669143269577933
 30
0.0
  0
VERTEX
  8
DETAIL
  6
CONTINUOUS
 62
     5
 10
-162.74410791823695
 20
7.9441162966512353
 30
0.0
  0
VERTEX
  8
DETAIL
  6
CONTINUOUS
 62
     5
 10
-162.71733390876031
 20
7.9327511831819697
 30
0.0
  0
VERTEX
  8
DETAIL
  6
CONTINUOUS
 62
     5
 10
-162.68764701677631
 20
7.9260745799947356
 30
0.0
  0
VERTEX
  8
DETAIL
  6
CONTINUOUS
 62
     5
 10
-162.65896921549506
 20
7.9190283736304403
 30
0.0
  0
VERTEX
  8
DETAIL
  6
CONTINUOUS
 62
     5
 10
-162.63143634660759
 20
7.9111863535197076
 30
0.0
  0
VERTEX
  8
DETAIL
  6
CONTINUOUS
 62
     5
 10
-162.60454658585033
 20
7.902902421131631
 30
0.0
  0
VERTEX
  8
DETAIL
  6
CONTINUOUS
 62
     5
 10
-162.57779810895985
 20
7.8945304779353007
 30
0.0
  0
VERTEX
  8
DETAIL
  6
CONTINUOUS
 62
     5
 10
-162.55068909167261
 20
7.8864244253998086
 30
0.0
  0
SEQEND
  8
DETAIL
  6
CONTINUOUS
 62
     5
  0
POLYLINE
  8
DETAIL
  6
CONTINUOUS
 62
     5
 66
     1
 10
0.0
 20
0.0
 30
0.0
  0
VERTEX
  8
DETAIL
  6
CONTINUOUS
 62
     5
 10
-239.4460465968728
 20
3.0060459445996912
 30
0.0
  0
VERTEX
  8
DETAIL
  6
CONTINUOUS
 62
     5
 10
-239.45812178617606
 20
3.0062612171216267
 30
0.0
  0
VERTEX
  8
DETAIL
  6
CONTINUOUS
 62
     5
 10
-239.47019696892309
 20
3.0064768578836341
 30
0.0
  0
VERTEX
  8
DETAIL
  6
CONTINUOUS
 62
     5
 10
-239.48227214508688
 20
3.0066928674401483
 30
0.0
  0
VERTEX
  8
DETAIL
  6
CONTINUOUS
 62
     5
 10
-239.49434731464061
 20
3.0069092463456113
 30
0.0
  0
VERTEX
  8
DETAIL
  6
CONTINUOUS
 62
     5
 10
-239.50642247755729
 20
3.00712599515446
 30
0.0
  0
VERTEX
  8
DETAIL
  6
CONTINUOUS
 62
     5
 10
-239.51849763381011
 20
3.0073431144211353
 30
0.0
  0
VERTEX
  8
DETAIL
  6
CONTINUOUS
 62
     5
 10
-239.53057278337201
 20
3.0075606047000738
 30
0.0
  0
SEQEND
  8
DETAIL
  6
CONTINUOUS
 62
     5
  0
POLYLINE
  8
DETAIL
  6
CONTINUOUS
 62
     5
 66
     1
 10
0.0
 20
0.0
 30
0.0
  0
VERTEX
  8
DETAIL
  6
CONTINUOUS
 62
     5
 10
-100.2943122253718
 20
222.8531494376
 30
0.0
  0
VERTEX
  8
DETAIL
  6
CONTINUOUS
 62
     5
 10
-100.29202846592561
 20
223.32324543084246
 30
0.0
  0
VERTEX
  8
DETAIL
  6
CONTINUOUS
 62
     5
 10
-100.28514987720793
 20
223.79330140561029
 30
0.0
  0
VERTEX
  8
DETAIL
  6
CONTINUOUS
 62
     5
 10
-100.27361130642582
 20
224.26326475305677
 30
0.0
  0
VERTEX
  8
DETAIL
  6
CONTINUOUS
 62
     5
 10
-100.25728366940983
 20
224.73308477116271
 30
0.0
  0
VERTEX
  8
DETAIL
  6
CONTINUOUS
 62
     5
 10
-100.23599897252144
 20
225.20270759679815
 30
0.0
  0
VERTEX
  8
DETAIL
  6
CONTINUOUS
 62
     5
 10
-100.20950074942891
 20
225.67206533180837
 30
0.0
  0
VERTEX
  8
DETAIL
  6
CONTINUOUS
 62
     5
 10
-100.17747145120114
 20
226.14107926544963
 30
0.0
  0
VERTEX
  8
DETAIL
  6
CONTINUOUS
 62
     5
 10
-100.13946355089996
 20
226.60964637985776
 30
0.0
  0
VERTEX
  8
DETAIL
  6
CONTINUOUS
 62
     5
 10
-100.0949105560304
 20
227.07763791805104
 30
0.0
  0
VERTEX
  8
DETAIL
  6
CONTINUOUS
 62
     5
 10
-100.04303210113426
 20
227.54487659973282
 30
0.0
  0
VERTEX
  8
DETAIL
  6
CONTINUOUS
 62
     5
 10
-99.982756954599921
 20
228.0111057664231
 30
0.0
  0
VERTEX
  8
DETAIL
  6
CONTINUOUS
 62
     5
 10
-99.912601900699599
 20
228.47595299244921
 30
0.0
  0
VERTEX
  8
DETAIL
  6
CONTINUOUS
 62
     5
 10
-99.830295847910833
 20
228.93881571960645
 30
0.0
  0
VERTEX
  8
DETAIL
  6
CONTINUOUS
 62
     5
 10
-99.732249542780011
 20
229.3985882151357
 30
0.0
  0
VERTEX
  8
DETAIL
  6
CONTINUOUS
 62
     5
 10
-99.612136294905753
 20
229.85308944945174
 30
0.0
  0
VERTEX
  8
DETAIL
  6
CONTINUOUS
 62
     5
 10
-99.456521176373826
 20
230.29666068650039
 30
0.0
  0
SEQEND
  8
DETAIL
  6
CONTINUOUS
 62
     5
  0
POLYLINE
  8
DETAIL
  6
CONTINUOUS
 62
     5
 66
     1
 10
0.0
 20
0.0
 30
0.0
  0
VERTEX
  8
DETAIL
  6
CONTINUOUS
 62
     5
 10
-99.456521442073608
 20
98.707721908100424
 30
0.0
  0
VERTEX
  8
DETAIL
  6
CONTINUOUS
 62
     5
 10
-99.612136518467992
 20
99.151293221305835
 30
0.0
  0
VERTEX
  8
DETAIL
  6
CONTINUOUS
 62
     5
 10
-99.732249749467741
 20
99.605794523369767
 30
0.0
  0
VERTEX
  8
DETAIL
  6
CONTINUOUS
 62
     5
 10
-99.830296027928526
 20
100.06556711661204
 30
0.0
  0
VERTEX
  8
DETAIL
  6
CONTINUOUS
 62
     5
 10
-99.912602078402287
 20
100.5284299202693
 30
0.0
  0
VERTEX
  8
DETAIL
  6
CONTINUOUS
 62
     5
 10
-99.982757122718695
 20
100.99327723281348
 30
0.0
  0
VERTEX
  8
DETAIL
  6
CONTINUOUS
 62
     5
 10
-100.04303224594278
 20
101.45950648830193
 30
0.0
  0
VERTEX
  8
DETAIL
  6
CONTINUOUS
 62
     5
 10
-100.09491068694098
 20
101.92674525357225
 30
0.0
  0
VERTEX
  8
DETAIL
  6
CONTINUOUS
 62
     5
 10
-100.13946365624953
 20
102.39473687838651
 30
0.0
  0
VERTEX
  8
DETAIL
  6
CONTINUOUS
 62
     5
 10
-100.1774715501198
 20
102.86330407615752
 30
0.0
  0
VERTEX
  8
DETAIL
  6
CONTINUOUS
 62
     5
 10
-100.20950082974622
 20
103.33231809502081
 30
0.0
  0
VERTEX
  8
DETAIL
  6
CONTINUOUS
 62
     5
 10
-100.23599902108286
 20
103.80167591495588
 30
0.0
  0
VERTEX
  8
DETAIL
  6
CONTINUOUS
 62
     5
 10
-100.25728369029365
 20
104.27129882613293
 30
0.0
  0
VERTEX
  8
DETAIL
  6
CONTINUOUS
 62
     5
 10
-100.27361133372625
 20
104.74111892837352
 30
0.0
  0
VERTEX
  8
DETAIL
  6
CONTINUOUS
 62
     5
 10
-100.28514990891955
 20
105.21108236076422
 30
0.0
  0
VERTEX
  8
DETAIL
  6
CONTINUOUS
 62
     5
 10
-100.29202847832813
 20
105.68113842059212
 30
0.0
  0
VERTEX
  8
DETAIL
  6
CONTINUOUS
 62
     5
 10
-100.29431224487369
 20
106.1512344979007
 30
0.0
  0
SEQEND
  8
DETAIL
  6
CONTINUOUS
 62
     5
  0
POLYLINE
  8
DETAIL
  6
CONTINUOUS
 62
     5
 66
     1
 10
0.0
 20
0.0
 30
0.0
  0
VERTEX
  8
DETAIL
  6
CONTINUOUS
 62
     5
 10
-226.76329120817221
 20
223.55456623260011
 30
0.0
  0
VERTEX
  8
DETAIL
  6
CONTINUOUS
 62
     5
 10
-226.76333937966137
 20
223.51153107549271
 30
0.0
  0
VERTEX
  8
DETAIL
  6
CONTINUOUS
 62
     5
 10
-226.76348986893279
 20
223.4684960862547
 30
0.0
  0
VERTEX
  8
DETAIL
  6
CONTINUOUS
 62
     5
 10
-226.7637516539547
 20
223.42546130657462
 30
0.0
  0
VERTEX
  8
DETAIL
  6
CONTINUOUS
 62
     5
 10
-226.76413559247442
 20
223.38242725442583
 30
0.0
  0
VERTEX
  8
DETAIL
  6
CONTINUOUS
 62
     5
 10
-226.76465617836098
 20
223.33939536907621
 30
0.0
  0
VERTEX
  8
DETAIL
  6
CONTINUOUS
 62
     5
 10
-226.76532881750688
 20
223.29636686005978
 30
0.0
  0
VERTEX
  8
DETAIL
  6
CONTINUOUS
 62
     5
 10
-226.76617295395019
 20
223.2533402106296
 30
0.0
  0
VERTEX
  8
DETAIL
  6
CONTINUOUS
 62
     5
 10
-226.76721044341562
 20
223.21031289246423
 30
0.0
  0
VERTEX
  8
DETAIL
  6
CONTINUOUS
 62
     5
 10
-226.76847715058202
 20
223.16729226793728
 30
0.0
  0
VERTEX
  8
DETAIL
  6
CONTINUOUS
 62
     5
 10
-226.77002534630842
 20
223.12429698715002
 30
0.0
  0
VERTEX
  8
DETAIL
  6
CONTINUOUS
 62
     5
 10
-226.77190414939571
 20
223.08131590350789
 30
0.0
  0
VERTEX
  8
DETAIL
  6
CONTINUOUS
 62
     5
 10
-226.77415976637653
 20
223.03828956750971
 30
0.0
  0
VERTEX
  8
DETAIL
  6
CONTINUOUS
 62
     5
 10
-226.77699489508007
 20
222.99534875792199
 30
0.0
  0
VERTEX
  8
DETAIL
  6
CONTINUOUS
 62
     5
 10
-226.78071092250696
 20
222.95265707452555
 30
0.0
  0
VERTEX
  8
DETAIL
  6
CONTINUOUS
 62
     5
 10
-226.78518244143427
 20
222.90930744794883
 30
0.0
  0
VERTEX
  8
DETAIL
  6
CONTINUOUS
 62
     5
 10
-226.79321952640825
 20
222.86826530688731
 30
0.0
  0
VERTEX
  8
DETAIL
  6
CONTINUOUS
 62
     5
 10
-226.8150303966722
 20
222.84179279440079
 30
0.0
  0
SEQEND
  8
DETAIL
  6
CONTINUOUS
 62
     5
  0
POLYLINE
  8
DETAIL
  6
CONTINUOUS
 62
     5
 66
     1
 10
0.0
 20
0.0
 30
0.0
  0
VERTEX
  8
DETAIL
  6
CONTINUOUS
 62
     5
 10
-122.5683720929719
 20
508.2601225180008
 30
0.0
  0
VERTEX
  8
DETAIL
  6
CONTINUOUS
 62
     5
 10
-122.58626234590992
 20
507.78490196271269
 30
0.0
  0
VERTEX
  8
DETAIL
  6
CONTINUOUS
 62
     5
 10
-122.63995436166566
 20
507.31224430937334
 30
0.0
  0
VERTEX
  8
DETAIL
  6
CONTINUOUS
 62
     5
 10
-122.72939897421396
 20
506.84512096137053
 30
0.0
  0
VERTEX
  8
DETAIL
  6
CONTINUOUS
 62
     5
 10
-122.85441328150532
 20
506.38622825469571
 30
0.0
  0
VERTEX
  8
DETAIL
  6
CONTINUOUS
 62
     5
 10
-123.01466761915705
 20
505.93840927064639
 30
0.0
  0
VERTEX
  8
DETAIL
  6
CONTINUOUS
 62
     5
 10
-123.20968312156766
 20
505.50460212750625
 30
0.0
  0
VERTEX
  8
DETAIL
  6
CONTINUOUS
 62
     5
 10
-123.4387688827738
 20
505.08778566795974
 30
0.0
  0
VERTEX
  8
DETAIL
  6
CONTINUOUS
 62
     5
 10
-123.70100511400351
 20
504.69099470178418
 30
0.0
  0
VERTEX
  8
DETAIL
  6
CONTINUOUS
 62
     5
 10
-123.99522836104263
 20
504.31730547606645
 30
0.0
  0
VERTEX
  8
DETAIL
  6
CONTINUOUS
 62
     5
 10
-124.31995579704304
 20
503.9698015527556
 30
0.0
  0
VERTEX
  8
DETAIL
  6
CONTINUOUS
 62
     5
 10
-124.67337727934094
 20
503.65152781546118
 30
0.0
  0
VERTEX
  8
DETAIL
  6
CONTINUOUS
 62
     5
 10
-125.05333599237903
 20
503.36544791731092
 30
0.0
  0
VERTEX
  8
DETAIL
  6
CONTINUOUS
 62
     5
 10
-125.45727367189734
 20
503.11436393371639
 30
0.0
  0
VERTEX
  8
DETAIL
  6
CONTINUOUS
 62
     5
 10
-125.88226406121829
 20
502.90083801199853
 30
0.0
  0
VERTEX
  8
DETAIL
  6
CONTINUOUS
 62
     5
 10
-126.32502202141531
 20
502.72713014019314
 30
0.0
  0
VERTEX
  8
DETAIL
  6
CONTINUOUS
 62
     5
 10
-126.78190541849997
 20
502.59509163962838
 30
0.0
  0
VERTEX
  8
DETAIL
  6
CONTINUOUS
 62
     5
 10
-127.24915420829929
 20
502.50608297829223
 30
0.0
  0
VERTEX
  8
DETAIL
  6
CONTINUOUS
 62
     5
 10
-127.722557870773
 20
502.4609972243004
 30
0.0
  0
SEQEND
  8
DETAIL
  6
CONTINUOUS
 62
     5
  0
POLYLINE
  8
DETAIL
  6
CONTINUOUS
 62
     5
 66
     1
 10
0.0
 20
0.0
 30
0.0
  0
VERTEX
  8
DETAIL
  6
CONTINUOUS
 62
     5
 10
-128.37710442927161
 20
534.26400691670074
 30
0.0
  0
VERTEX
  8
DETAIL
  6
CONTINUOUS
 62
     5
 10
-127.86528816815044
 20
534.25982973572457
 30
0.0
  0
VERTEX
  8
DETAIL
  6
CONTINUOUS
 62
     5
 10
-127.35613764481568
 20
534.20616444720292
 30
0.0
  0
VERTEX
  8
DETAIL
  6
CONTINUOUS
 62
     5
 10
-126.85459927044269
 20
534.10381276903547
 30
0.0
  0
VERTEX
  8
DETAIL
  6
CONTINUOUS
 62
     5
 10
-126.36507162520772
 20
533.95409995509124
 30
0.0
  0
VERTEX
  8
DETAIL
  6
CONTINUOUS
 62
     5
 10
-125.89186493003395
 20
533.75883514271595
 30
0.0
  0
VERTEX
  8
DETAIL
  6
CONTINUOUS
 62
     5
 10
-125.43895734053952
 20
533.52024804312771
 30
0.0
  0
VERTEX
  8
DETAIL
  6
CONTINUOUS
 62
     5
 10
-125.00998554900663
 20
533.24090435532639
 30
0.0
  0
VERTEX
  8
DETAIL
  6
CONTINUOUS
 62
     5
 10
-124.60823451449583
 20
532.92366071695744
 30
0.0
  0
VERTEX
  8
DETAIL
  6
CONTINUOUS
 62
     5
 10
-124.23661242727431
 20
532.57159713514932
 30
0.0
  0
VERTEX
  8
DETAIL
  6
CONTINUOUS
 62
     5
 10
-123.89769005486504
 20
532.18794973322736
 30
0.0
  0
VERTEX
  8
DETAIL
  6
CONTINUOUS
 62
     5
 10
-123.59369087345257
 20
531.77607775444881
 30
0.0
  0
VERTEX
  8
DETAIL
  6
CONTINUOUS
 62
     5
 10
-123.32650393571244
 20
531.33942144115474
 30
0.0
  0
VERTEX
  8
DETAIL
  6
CONTINUOUS
 62
     5
 10
-123.0977420337455
 20
530.88146374462008
 30
0.0
  0
VERTEX
  8
DETAIL
  6
CONTINUOUS
 62
     5
 10
-122.90873349857235
 20
530.40571124961014
 30
0.0
  0
VERTEX
  8
DETAIL
  6
CONTINUOUS
 62
     5
 10
-122.76054672422543
 20
529.91572095182573
 30
0.0
  0
VERTEX
  8
DETAIL
  6
CONTINUOUS
 62
     5
 10
-122.65403591613433
 20
529.41503067822498
 30
0.0
  0
VERTEX
  8
DETAIL
  6
CONTINUOUS
 62
     5
 10
-122.58983619506103
 20
528.90706804178785
 30
0.0
  0
VERTEX
  8
DETAIL
  6
CONTINUOUS
 62
     5
 10
-122.5683720929719
 20
528.39567869000007
 30
0.0
  0
SEQEND
  8
DETAIL
  6
CONTINUOUS
 62
     5
  0
POLYLINE
  8
DETAIL
  6
CONTINUOUS
 62
     5
 66
     1
 10
0.0
 20
0.0
 30
0.0
  0
VERTEX
  8
DETAIL
  6
CONTINUOUS
 62
     5
 10
-215.52289552137199
 20
534.26400691670074
 30
0.0
  0
VERTEX
  8
DETAIL
  6
CONTINUOUS
 62
     5
 10
-208.26378802139234
 20
533.99508552433906
 30
0.0
  0
VERTEX
  8
DETAIL
  6
CONTINUOUS
 62
     5
 10
-201.00298657596676
 20
533.77544527819862
 30
0.0
  0
VERTEX
  8
DETAIL
  6
CONTINUOUS
 62
     5
 10
-193.74088087762692
 20
533.60484954289177
 30
0.0
  0
VERTEX
  8
DETAIL
  6
CONTINUOUS
 62
     5
 10
-186.47780112537606
 20
533.48312720536182
 30
0.0
  0
VERTEX
  8
DETAIL
  6
CONTINUOUS
 62
     5
 10
-179.21406516644637
 20
533.41014096296067
 30
0.0
  0
VERTEX
  8
DETAIL
  6
CONTINUOUS
 62
     5
 10
-171.94999997604239
 20
533.38582336229899
 30
0.0
  0
VERTEX
  8
DETAIL
  6
CONTINUOUS
 62
     5
 10
-164.68593478539589
 20
533.4101409459704
 30
0.0
  0
VERTEX
  8
DETAIL
  6
CONTINUOUS
 62
     5
 10
-157.42219882641385
 20
533.4831271898089
 30
0.0
  0
VERTEX
  8
DETAIL
  6
CONTINUOUS
 62
     5
 10
-150.15911907470968
 20
533.60484955273853
 30
0.0
  0
VERTEX
  8
DETAIL
  6
CONTINUOUS
 62
     5
 10
-142.89701337579021
 20
533.77544529120212
 30
0.0
  0
VERTEX
  8
DETAIL
  6
CONTINUOUS
 62
     5
 10
-135.63621192813736
 20
533.99508549415282
 30
0.0
  0
VERTEX
  8
DETAIL
  6
CONTINUOUS
 62
     5
 10
-128.37710442927161
 20
534.26400691670074
 30
0.0
  0
SEQEND
  8
DETAIL
  6
CONTINUOUS
 62
     5
  0
POLYLINE
  8
DETAIL
  6
CONTINUOUS
 62
     5
 66
     1
 10
0.0
 20
0.0
 30
0.0
  0
VERTEX
  8
DETAIL
  6
CONTINUOUS
 62
     5
 10
-221.3316278575717
 20
528.39567869000007
 30
0.0
  0
VERTEX
  8
DETAIL
  6
CONTINUOUS
 62
     5
 10
-221.31016375638694
 20
528.90706804207355
 30
0.0
  0
VERTEX
  8
DETAIL
  6
CONTINUOUS
 62
     5
 10
-221.24596403985458
 20
529.41503067777194
 30
0.0
  0
VERTEX
  8
DETAIL
  6
CONTINUOUS
 62
     5
 10
-221.13945322386283
 20
529.91572095011236
 30
0.0
  0
VERTEX
  8
DETAIL
  6
CONTINUOUS
 62
     5
 10
-220.991266450474
 20
530.40571124870996
 30
0.0
  0
VERTEX
  8
DETAIL
  6
CONTINUOUS
 62
     5
 10
-220.80225791889993
 20
530.88146374450423
 30
0.0
  0
VERTEX
  8
DETAIL
  6
CONTINUOUS
 62
     5
 10
-220.5734960153423
 20
531.33942144034836
 30
0.0
  0
VERTEX
  8
DETAIL
  6
CONTINUOUS
 62
     5
 10
-220.30630907706205
 20
531.7760777535201
 30
0.0
  0
VERTEX
  8
DETAIL
  6
CONTINUOUS
 62
     5
 10
-220.00230989645587
 20
532.18794973271861
 30
0.0
  0
VERTEX
  8
DETAIL
  6
CONTINUOUS
 62
     5
 10
-219.66338752406139
 20
532.57159713468093
 30
0.0
  0
VERTEX
  8
DETAIL
  6
CONTINUOUS
 62
     5
 10
-219.29176543652056
 20
532.923660716006
 30
0.0
  0
VERTEX
  8
DETAIL
  6
CONTINUOUS
 62
     5
 10
-218.89001440226082
 20
533.24090435490541
 30
0.0
  0
VERTEX
  8
DETAIL
  6
CONTINUOUS
 62
     5
 10
-218.46104261140181
 20
533.52024804388532
 30
0.0
  0
VERTEX
  8
DETAIL
  6
CONTINUOUS
 62
     5
 10
-218.00813502098703
 20
533.7588351404429
 30
0.0
  0
VERTEX
  8
DETAIL
  6
CONTINUOUS
 62
     5
 10
-217.53492832565897
 20
533.95409995444925
 30
0.0
  0
VERTEX
  8
DETAIL
  6
CONTINUOUS
 62
     5
 10
-217.04540068224566
 20
534.10381277442332
 30
0.0
  0
VERTEX
  8
DETAIL
  6
CONTINUOUS
 62
     5
 10
-216.54386230716588
 20
534.20616444122197
 30
0.0
  0
VERTEX
  8
DETAIL
  6
CONTINUOUS
 62
     5
 10
-216.03471178207195
 20
534.25982973579721
 30
0.0
  0
VERTEX
  8
DETAIL
  6
CONTINUOUS
 62
     5
 10
-215.52289552137196
 20
534.26400691670074
 30
0.0
  0
SEQEND
  8
DETAIL
  6
CONTINUOUS
 62
     5
  0
POLYLINE
  8
DETAIL
  6
CONTINUOUS
 62
     5
 66
     1
 10
0.0
 20
0.0
 30
0.0
  0
VERTEX
  8
DETAIL
  6
CONTINUOUS
 62
     5
 10
-216.17744207987289
 20
502.4609972243004
 30
0.0
  0
VERTEX
  8
DETAIL
  6
CONTINUOUS
 62
     5
 10
-216.65084574448019
 20
502.50608296227296
 30
0.0
  0
VERTEX
  8
DETAIL
  6
CONTINUOUS
 62
     5
 10
-217.1180945309597
 20
502.59509163190745
 30
0.0
  0
VERTEX
  8
DETAIL
  6
CONTINUOUS
 62
     5
 10
-217.57497792479194
 20
502.72713014984845
 30
0.0
  0
VERTEX
  8
DETAIL
  6
CONTINUOUS
 62
     5
 10
-218.01773588947765
 20
502.90083800957348
 30
0.0
  0
VERTEX
  8
DETAIL
  6
CONTINUOUS
 62
     5
 10
-218.44272627839615
 20
503.11436393030567
 30
0.0
  0
VERTEX
  8
DETAIL
  6
CONTINUOUS
 62
     5
 10
-218.84666395617052
 20
503.36544791857216
 30
0.0
  0
VERTEX
  8
DETAIL
  6
CONTINUOUS
 62
     5
 10
-219.22662267058428
 20
503.65152781455316
 30
0.0
  0
VERTEX
  8
DETAIL
  6
CONTINUOUS
 62
     5
 10
-219.58004415306004
 20
503.96980155152966
 30
0.0
  0
VERTEX
  8
DETAIL
  6
CONTINUOUS
 62
     5
 10
-219.90477158865721
 20
504.31730547555532
 30
0.0
  0
VERTEX
  8
DETAIL
  6
CONTINUOUS
 62
     5
 10
-220.19899483598539
 20
504.69099470107136
 30
0.0
  0
VERTEX
  8
DETAIL
  6
CONTINUOUS
 62
     5
 10
-220.46123106783122
 20
505.08778566699419
 30
0.0
  0
VERTEX
  8
DETAIL
  6
CONTINUOUS
 62
     5
 10
-220.69031682844707
 20
505.50460212680576
 30
0.0
  0
VERTEX
  8
DETAIL
  6
CONTINUOUS
 62
     5
 10
-220.88533233009929
 20
505.93840927037257
 30
0.0
  0
VERTEX
  8
DETAIL
  6
CONTINUOUS
 62
     5
 10
-221.04558667027041
 20
506.3862282539215
 30
0.0
  0
VERTEX
  8
DETAIL
  6
CONTINUOUS
 62
     5
 10
-221.17060097771221
 20
506.84512096025793
 30
0.0
  0
VERTEX
  8
DETAIL
  6
CONTINUOUS
 62
     5
 10
-221.26004558593314
 20
507.31224430901437
 30
0.0
  0
VERTEX
  8
DETAIL
  6
CONTINUOUS
 62
     5
 10
-221.31373760481526
 20
507.78490196278113
 30
0.0
  0
VERTEX
  8
DETAIL
  6
CONTINUOUS
 62
     5
 10
-221.3316278575717
 20
508.2601225180008
 30
0.0
  0
SEQEND
  8
DETAIL
  6
CONTINUOUS
 62
     5
  0
POLYLINE
  8
DETAIL
  6
CONTINUOUS
 62
     5
 66
     1
 10
0.0
 20
0.0
 30
0.0
  0
VERTEX
  8
DETAIL
  6
CONTINUOUS
 62
     5
 10
-127.722557870773
 20
502.4609972243004
 30
0.0
  0
VERTEX
  8
DETAIL
  6
CONTINUOUS
 62
     5
 10
-135.08938940541853
 20
502.13481093030356
 30
0.0
  0
VERTEX
  8
DETAIL
  6
CONTINUOUS
 62
     5
 10
-142.4586758802956
 20
501.86838135193733
 30
0.0
  0
VERTEX
  8
DETAIL
  6
CONTINUOUS
 62
     5
 10
-149.82985286869962
 20
501.66143324757218
 30
0.0
  0
VERTEX
  8
DETAIL
  6
CONTINUOUS
 62
     5
 10
-157.20244188784559
 20
501.51376701297164
 30
0.0
  0
VERTEX
  8
DETAIL
  6
CONTINUOUS
 62
     5
 10
-164.5759822667583
 20
501.42522232002506
 30
0.0
  0
VERTEX
  8
DETAIL
  6
CONTINUOUS
 62
     5
 10
-171.9499999764972
 20
501.39572044259864
 30
0.0
  0
VERTEX
  8
DETAIL
  6
CONTINUOUS
 62
     5
 10
-179.32401768583483
 20
501.42522234194269
 30
0.0
  0
VERTEX
  8
DETAIL
  6
CONTINUOUS
 62
     5
 10
-186.69755806472767
 20
501.51376703046196
 30
0.0
  0
VERTEX
  8
DETAIL
  6
CONTINUOUS
 62
     5
 10
-194.07014708493062
 20
501.66143322720842
 30
0.0
  0
VERTEX
  8
DETAIL
  6
CONTINUOUS
 62
     5
 10
-201.44132407228074
 20
501.86838133062133
 30
0.0
  0
VERTEX
  8
DETAIL
  6
CONTINUOUS
 62
     5
 10
-208.81061054300929
 20
502.13481097950125
 30
0.0
  0
VERTEX
  8
DETAIL
  6
CONTINUOUS
 62
     5
 10
-216.17744207987289
 20
502.4609972243004
 30
0.0
  0
SEQEND
  8
DETAIL
  6
CONTINUOUS
 62
     5
  0
POLYLINE
  8
DETAIL
  6
CONTINUOUS
 62
     5
 66
     1
 10
0.0
 20
0.0
 30
0.0
  0
VERTEX
  8
DETAIL
  6
CONTINUOUS
 62
     5
 10
-108.92876592417269
 20
230.29661697200029
 30
0.0
  0
VERTEX
  8
DETAIL
  6
CONTINUOUS
 62
     5
 10
-109.09387366292768
 20
229.85579603451993
 30
0.0
  0
VERTEX
  8
DETAIL
  6
CONTINUOUS
 62
     5
 10
-109.22181143138084
 20
229.40275673200793
 30
0.0
  0
VERTEX
  8
DETAIL
  6
CONTINUOUS
 62
     5
 10
-109.32641665896743
 20
228.94376562198497
 30
0.0
  0
VERTEX
  8
DETAIL
  6
CONTINUOUS
 62
     5
 10
-109.41430586685715
 20
228.48126626489204
 30
0.0
  0
VERTEX
  8
DETAIL
  6
CONTINUOUS
 62
     5
 10
-109.48926048400301
 20
228.01650968508122
 30
0.0
  0
VERTEX
  8
DETAIL
  6
CONTINUOUS
 62
     5
 10
-109.55368112759936
 20
227.55017868425466
 30
0.0
  0
VERTEX
  8
DETAIL
  6
CONTINUOUS
 62
     5
 10
-109.60914027910778
 20
227.08269632109861
 30
0.0
  0
VERTEX
  8
DETAIL
  6
CONTINUOUS
 62
     5
 10
-109.65677686920951
 20
226.61435504074709
 30
0.0
  0
VERTEX
  8
DETAIL
  6
CONTINUOUS
 62
     5
 10
-109.6974200727158
 20
226.1453566664733
 30
0.0
  0
VERTEX
  8
DETAIL
  6
CONTINUOUS
 62
     5
 10
-109.73167372896346
 20
225.67584815229679
 30
0.0
  0
VERTEX
  8
DETAIL
  6
CONTINUOUS
 62
     5
 10
-109.76001437989963
 20
225.20594694960494
 30
0.0
  0
VERTEX
  8
DETAIL
  6
CONTINUOUS
 62
     5
 10
-109.78278033564352
 20
224.7357429235349
 30
0.0
  0
VERTEX
  8
DETAIL
  6
CONTINUOUS
 62
     5
 10
-109.800244774174
 20
224.26531357932151
 30
0.0
  0
VERTEX
  8
DETAIL
  6
CONTINUOUS
 62
     5
 10
-109.81258767820054
 20
223.79472034554482
 30
0.0
  0
VERTEX
  8
DETAIL
  6
CONTINUOUS
 62
     5
 10
-109.81994709768288
 20
223.32402121982278
 30
0.0
  0
VERTEX
  8
DETAIL
  6
CONTINUOUS
 62
     5
 10
-109.8223893319737
 20
222.85327642819991
 30
0.0
  0
SEQEND
  8
DETAIL
  6
CONTINUOUS
 62
     5
  0
POLYLINE
  8
DETAIL
  6
CONTINUOUS
 62
     5
 66
     1
 10
0.0
 20
0.0
 30
0.0
  0
VERTEX
  8
DETAIL
  6
CONTINUOUS
 62
     5
 10
-109.8223893319737
 20
106.1511055163009
 30
0.0
  0
VERTEX
  8
DETAIL
  6
CONTINUOUS
 62
     5
 10
-109.81994709771052
 20
105.68036072466708
 30
0.0
  0
VERTEX
  8
DETAIL
  6
CONTINUOUS
 62
     5
 10
-109.81258767819972
 20
105.20966159888715
 30
0.0
  0
VERTEX
  8
DETAIL
  6
CONTINUOUS
 62
     5
 10
-109.80024477423824
 20
104.73906836504977
 30
0.0
  0
VERTEX
  8
DETAIL
  6
CONTINUOUS
 62
     5
 10
-109.78278033569879
 20
104.26863902083872
 30
0.0
  0
VERTEX
  8
DETAIL
  6
CONTINUOUS
 62
     5
 10
-109.76001437994609
 20
103.79843499477542
 30
0.0
  0
VERTEX
  8
DETAIL
  6
CONTINUOUS
 62
     5
 10
-109.73167372887922
 20
103.3285337921205
 30
0.0
  0
VERTEX
  8
DETAIL
  6
CONTINUOUS
 62
     5
 10
-109.69742007268124
 20
102.8590252779516
 30
0.0
  0
VERTEX
  8
DETAIL
  6
CONTINUOUS
 62
     5
 10
-109.6567768690352
 20
102.39002690375987
 30
0.0
  0
VERTEX
  8
DETAIL
  6
CONTINUOUS
 62
     5
 10
-109.60914027914519
 20
101.92168562342646
 30
0.0
  0
VERTEX
  8
DETAIL
  6
CONTINUOUS
 62
     5
 10
-109.55368112748174
 20
101.45420326041121
 30
0.0
  0
VERTEX
  8
DETAIL
  6
CONTINUOUS
 62
     5
 10
-109.48926048410549
 20
100.98787225962803
 30
0.0
  0
VERTEX
  8
DETAIL
  6
CONTINUOUS
 62
     5
 10
-109.41430586680775
 20
100.5231156800449
 30
0.0
  0
VERTEX
  8
DETAIL
  6
CONTINUOUS
 62
     5
 10
-109.32641665899285
 20
100.06061632309162
 30
0.0
  0
VERTEX
  8
DETAIL
  6
CONTINUOUS
 62
     5
 10
-109.22181143165807
 20
99.601625213334998
 30
0.0
  0
VERTEX
  8
DETAIL
  6
CONTINUOUS
 62
     5
 10
-109.09387366305995
 20
99.148585910653367
 30
0.0
  0
VERTEX
  8
DETAIL
  6
CONTINUOUS
 62
     5
 10
-108.92876592417269
 20
98.707764972500627
 30
0.0
  0
SEQEND
  8
DETAIL
  6
CONTINUOUS
 62
     5
  0
POLYLINE
  8
DETAIL
  6
CONTINUOUS
 62
     5
 66
     1
 10
0.0
 20
0.0
 30
0.0
  0
VERTEX
  8
DETAIL
  6
CONTINUOUS
 62
     5
 10
-217.10403401587249
 20
64.452628302100266
 30
0.0
  0
VERTEX
  8
DETAIL
  6
CONTINUOUS
 62
     5
 10
-210.7180134961032
 20
64.880958149084606
 30
0.0
  0
VERTEX
  8
DETAIL
  6
CONTINUOUS
 62
     5
 10
-204.32784207236952
 20
65.24284224995975
 30
0.0
  0
VERTEX
  8
DETAIL
  6
CONTINUOUS
 62
     5
 10
-197.93430741987947
 20
65.538858163637812
 30
0.0
  0
VERTEX
  8
DETAIL
  6
CONTINUOUS
 62
     5
 10
-191.53808176284195
 20
65.769480727411931
 30
0.0
  0
VERTEX
  8
DETAIL
  6
CONTINUOUS
 62
     5
 10
-185.13983673223075
 20
65.935071297557258
 30
0.0
  0
VERTEX
  8
DETAIL
  6
CONTINUOUS
 62
     5
 10
-178.74024524419829
 20
66.035895907487586
 30
0.0
  0
VERTEX
  8
DETAIL
  6
CONTINUOUS
 62
     5
 10
-172.33996254320934
 20
66.072105657186071
 30
0.0
  0
VERTEX
  8
DETAIL
  6
CONTINUOUS
 62
     5
 10
-165.93963990584888
 20
66.043761408760616
 30
0.0
  0
VERTEX
  8
DETAIL
  6
CONTINUOUS
 62
     5
 10
-159.53992950836363
 20
65.95081878367445
 30
0.0
  0
VERTEX
  8
DETAIL
  6
CONTINUOUS
 62
     5
 10
-153.1414865423927
 20
65.793128421579468
 30
0.0
  0
VERTEX
  8
DETAIL
  6
CONTINUOUS
 62
     5
 10
-146.74497349967885
 20
65.57044967007316
 30
0.0
  0
VERTEX
  8
DETAIL
  6
CONTINUOUS
 62
     5
 10
-140.35107517558095
 20
65.282424855375865
 30
0.0
  0
VERTEX
  8
DETAIL
  6
CONTINUOUS
 62
     5
 10
-133.96047882554902
 20
64.928598500909231
 30
0.0
  0
VERTEX
  8
DETAIL
  6
CONTINUOUS
 62
     5
 10
-127.57387629563426
 20
64.508397404934826
 30
0.0
  0
VERTEX
  8
DETAIL
  6
CONTINUOUS
 62
     5
 10
-121.1920810276733
 20
64.021142154500694
 30
0.0
  0
SEQEND
  8
DETAIL
  6
CONTINUOUS
 62
     5
  0
POLYLINE
  8
DETAIL
  6
CONTINUOUS
 62
     5
 66
     1
 10
0.0
 20
0.0
 30
0.0
  0
VERTEX
  8
DETAIL
  6
CONTINUOUS
 62
     5
 10
-121.1920796730719
 20
243.48751800579981
 30
0.0
  0
VERTEX
  8
DETAIL
  6
CONTINUOUS
 62
     5
 10
-125.00673246805482
 20
243.18811516867902
 30
0.0
  0
VERTEX
  8
DETAIL
  6
CONTINUOUS
 62
     5
 10
-128.82323161199162
 20
242.91278390343007
 30
0.0
  0
VERTEX
  8
DETAIL
  6
CONTINUOUS
 62
     5
 10
-132.64138501492758
 20
242.66136632191441
 30
0.0
  0
VERTEX
  8
DETAIL
  6
CONTINUOUS
 62
     5
 10
-136.46101542309455
 20
242.43371501212496
 30
0.0
  0
VERTEX
  8
DETAIL
  6
CONTINUOUS
 62
     5
 10
-140.28197578959626
 20
242.22970389173869
 30
0.0
  0
VERTEX
  8
DETAIL
  6
CONTINUOUS
 62
     5
 10
-144.10412255100437
 20
242.0492101048369
 30
0.0
  0
VERTEX
  8
DETAIL
  6
CONTINUOUS
 62
     5
 10
-147.92730660012066
 20
241.89212928197855
 30
0.0
  0
VERTEX
  8
DETAIL
  6
CONTINUOUS
 62
     5
 10
-151.7513725384695
 20
241.75837803286836
 30
0.0
  0
VERTEX
  8
DETAIL
  6
CONTINUOUS
 62
     5
 10
-155.57616532358963
 20
241.6478758287295
 30
0.0
  0
VERTEX
  8
DETAIL
  6
CONTINUOUS
 62
     5
 10
-159.40153819237179
 20
241.56056269410101
 30
0.0
  0
SEQEND
  8
DETAIL
  6
CONTINUOUS
 62
     5
  0
POLYLINE
  8
DETAIL
  6
CONTINUOUS
 62
     5
 66
     1
 10
0.0
 20
0.0
 30
0.0
  0
VERTEX
  8
DETAIL
  6
CONTINUOUS
 62
     5
 10
-178.4002139668728
 20
241.4692135097005
 30
0.0
  0
VERTEX
  8
DETAIL
  6
CONTINUOUS
 62
     5
 10
-182.27409095068199
 20
241.52043808905773
 30
0.0
  0
VERTEX
  8
DETAIL
  6
CONTINUOUS
 62
     5
 10
-186.14760163627221
 20
241.59536253875328
 30
0.0
  0
VERTEX
  8
DETAIL
  6
CONTINUOUS
 62
     5
 10
-190.02059444455188
 20
241.69402666800292
 30
0.0
  0
VERTEX
  8
DETAIL
  6
CONTINUOUS
 62
     5
 10
-193.89291264540651
 20
241.8164932432642
 30
0.0
  0
VERTEX
  8
DETAIL
  6
CONTINUOUS
 62
     5
 10
-197.76439917586515
 20
241.96282842095152
 30
0.0
  0
VERTEX
  8
DETAIL
  6
CONTINUOUS
 62
     5
 10
-201.63490295321444
 20
242.13311684188744
 30
0.0
  0
VERTEX
  8
DETAIL
  6
CONTINUOUS
 62
     5
 10
-205.50427897141157
 20
242.32746192930588
 30
0.0
  0
VERTEX
  8
DETAIL
  6
CONTINUOUS
 62
     5
 10
-209.37237922696895
 20
242.54597072319802
 30
0.0
  0
VERTEX
  8
DETAIL
  6
CONTINUOUS
 62
     5
 10
-213.23902646621457
 20
242.78877510389427
 30
0.0
  0
VERTEX
  8
DETAIL
  6
CONTINUOUS
 62
     5
 10
-217.1040280309721
 20
243.05602003380051
 30
0.0
  0
SEQEND
  8
DETAIL
  6
CONTINUOUS
 62
     5
  0
POLYLINE
  8
DETAIL
  6
CONTINUOUS
 62
     5
 66
     1
 10
0.0
 20
0.0
 30
0.0
  0
VERTEX
  8
DETAIL
  6
CONTINUOUS
 62
     5
 10
-233.3292752484731
 20
40.600000000000591
 30
0.0
  0
VERTEX
  8
DETAIL
  6
CONTINUOUS
 62
     5
 10
-234.12115126067073
 20
40.632019266088918
 30
0.0
  0
VERTEX
  8
DETAIL
  6
CONTINUOUS
 62
     5
 10
-234.90792538136822
 20
40.728747612597601
 30
0.0
  0
VERTEX
  8
DETAIL
  6
CONTINUOUS
 62
     5
 10
-235.68374006824544
 20
40.890771688316448
 30
0.0
  0
VERTEX
  8
DETAIL
  6
CONTINUOUS
 62
     5
 10
-236.44303672400693
 20
41.118060006944788
 30
0.0
  0
VERTEX
  8
DETAIL
  6
CONTINUOUS
 62
     5
 10
-237.17996368119898
 20
41.409834383497461
 30
0.0
  0
VERTEX
  8
DETAIL
  6
CONTINUOUS
 62
     5
 10
-237.88873026400427
 20
41.764553877088375
 30
0.0
  0
VERTEX
  8
DETAIL
  6
CONTINUOUS
 62
     5
 10
-238.56374982816297
 20
42.179922766015643
 30
0.0
  0
VERTEX
  8
DETAIL
  6
CONTINUOUS
 62
     5
 10
-239.19974528114432
 20
42.652881107838539
 30
0.0
  0
VERTEX
  8
DETAIL
  6
CONTINUOUS
 62
     5
 10
-239.79192331567333
 20
43.179668339426527
 30
0.0
  0
VERTEX
  8
DETAIL
  6
CONTINUOUS
 62
     5
 10
-240.33605670424362
 20
43.755955798202287
 30
0.0
  0
VERTEX
  8
DETAIL
  6
CONTINUOUS
 62
     5
 10
-240.82855314040467
 20
44.376951642890205
 30
0.0
  0
VERTEX
  8
DETAIL
  6
CONTINUOUS
 62
     5
 10
-241.26654291154802
 20
45.03752527466397
 30
0.0
  0
VERTEX
  8
DETAIL
  6
CONTINUOUS
 62
     5
 10
-241.64785196566342
 20
45.732369449383512
 30
0.0
  0
VERTEX
  8
DETAIL
  6
CONTINUOUS
 62
     5
 10
-241.9709531123988
 20
46.456117560015855
 30
0.0
  0
VERTEX
  8
DETAIL
  6
CONTINUOUS
 62
     5
 10
-242.23496564352695
 20
47.203459701018787
 30
0.0
  0
VERTEX
  8
DETAIL
  6
CONTINUOUS
 62
     5
 10
-242.4395600449524
 20
47.969193594511488
 30
0.0
  0
VERTEX
  8
DETAIL
  6
CONTINUOUS
 62
     5
 10
-242.58485328203989
 20
48.748345990227328
 30
0.0
  0
VERTEX
  8
DETAIL
  6
CONTINUOUS
 62
     5
 10
-242.67138487628424
 20
49.536337213984957
 30
0.0
  0
VERTEX
  8
DETAIL
  6
CONTINUOUS
 62
     5
 10
-242.69999997527341
 20
50.328347073600519
 30
0.0
  0
SEQEND
  8
DETAIL
  6
CONTINUOUS
 62
     5
  0
POLYLINE
  8
DETAIL
  6
CONTINUOUS
 62
     5
 66
     1
 10
0.0
 20
0.0
 30
0.0
  0
VERTEX
  8
DETAIL
  6
CONTINUOUS
 62
     5
 10
-101.19999997527241
 20
50.663844042600203
 30
0.0
  0
VERTEX
  8
DETAIL
  6
CONTINUOUS
 62
     5
 10
-101.22919162688702
 20
49.853206601934033
 30
0.0
  0
VERTEX
  8
DETAIL
  6
CONTINUOUS
 62
     5
 10
-101.31722344086657
 20
49.046622134051226
 30
0.0
  0
VERTEX
  8
DETAIL
  6
CONTINUOUS
 62
     5
 10
-101.4646266358732
 20
48.248899680329366
 30
0.0
  0
VERTEX
  8
DETAIL
  6
CONTINUOUS
 62
     5
 10
-101.6716783485998
 20
47.464531285593154
 30
0.0
  0
VERTEX
  8
DETAIL
  6
CONTINUOUS
 62
     5
 10
-101.938313753367
 20
46.698351497160054
 30
0.0
  0
VERTEX
  8
DETAIL
  6
CONTINUOUS
 62
     5
 10
-102.26411403622579
 20
45.955408477642415
 30
0.0
  0
VERTEX
  8
DETAIL
  6
CONTINUOUS
 62
     5
 10
-102.64820881388211
 20
45.240860584924171
 30
0.0
  0
VERTEX
  8
DETAIL
  6
CONTINUOUS
 62
     5
 10
-103.08919910949344
 20
44.559962305585891
 30
0.0
  0
VERTEX
  8
DETAIL
  6
CONTINUOUS
 62
     5
 10
-103.58514495754952
 20
43.91798855929521
 30
0.0
  0
VERTEX
  8
DETAIL
  6
CONTINUOUS
 62
     5
 10
-104.13348294685078
 20
43.320146296599724
 30
0.0
  0
VERTEX
  8
DETAIL
  6
CONTINUOUS
 62
     5
 10
-104.73098460504566
 20
42.771448118267578
 30
0.0
  0
VERTEX
  8
DETAIL
  6
CONTINUOUS
 62
     5
 10
-105.37379574388289
 20
42.27660516142776
 30
0.0
  0
VERTEX
  8
DETAIL
  6
CONTINUOUS
 62
     5
 10
-106.05744359236901
 20
41.839910625446628
 30
0.0
  0
VERTEX
  8
DETAIL
  6
CONTINUOUS
 62
     5
 10
-106.77686830983676
 20
41.465085335433926
 30
0.0
  0
VERTEX
  8
DETAIL
  6
CONTINUOUS
 62
     5
 10
-107.52656421177365
 20
41.155193221776727
 30
0.0
  0
VERTEX
  8
DETAIL
  6
CONTINUOUS
 62
     5
 10
-108.3006559761411
 20
40.912581862371589
 30
0.0
  0
VERTEX
  8
DETAIL
  6
CONTINUOUS
 62
     5
 10
-109.0930051958247
 20
40.738806834499989
 30
0.0
  0
VERTEX
  8
DETAIL
  6
CONTINUOUS
 62
     5
 10
-109.89760905222128
 20
40.63461279691672
 30
0.0
  0
VERTEX
  8
DETAIL
  6
CONTINUOUS
 62
     5
 10
-110.70802554677169
 20
40.600000000000591
 30
0.0
  0
SEQEND
  8
DETAIL
  6
CONTINUOUS
 62
     5
  0
POLYLINE
  8
DETAIL
  6
CONTINUOUS
 62
     5
 66
     1
 10
0.0
 20
0.0
 30
0.0
  0
VERTEX
  8
DETAIL
  6
CONTINUOUS
 62
     5
 10
-111.344007439473
 20
73.325326640500634
 30
0.0
  0
VERTEX
  8
DETAIL
  6
CONTINUOUS
 62
     5
 10
-111.42986712809142
 20
72.553167549244961
 30
0.0
  0
VERTEX
  8
DETAIL
  6
CONTINUOUS
 62
     5
 10
-111.58162907812199
 20
71.791054932196147
 30
0.0
  0
VERTEX
  8
DETAIL
  6
CONTINUOUS
 62
     5
 10
-111.79689544232447
 20
71.044524832567504
 30
0.0
  0
VERTEX
  8
DETAIL
  6
CONTINUOUS
 62
     5
 10
-112.07291172906974
 20
70.318225619091763
 30
0.0
  0
VERTEX
  8
DETAIL
  6
CONTINUOUS
 62
     5
 10
-112.40660628399941
 20
69.616557364545528
 30
0.0
  0
VERTEX
  8
DETAIL
  6
CONTINUOUS
 62
     5
 10
-112.79470556606536
 20
68.943459619747301
 30
0.0
  0
VERTEX
  8
DETAIL
  6
CONTINUOUS
 62
     5
 10
-113.2338063627578
 20
68.302467728658925
 30
0.0
  0
VERTEX
  8
DETAIL
  6
CONTINUOUS
 62
     5
 10
-113.72041961824577
 20
67.696763019686031
 30
0.0
  0
VERTEX
  8
DETAIL
  6
CONTINUOUS
 62
     5
 10
-114.25101646528687
 20
67.129190745877622
 30
0.0
  0
VERTEX
  8
DETAIL
  6
CONTINUOUS
 62
     5
 10
-114.82205333004916
 20
66.602327258788264
 30
0.0
  0
VERTEX
  8
DETAIL
  6
CONTINUOUS
 62
     5
 10
-115.42998408916823
 20
66.118507021418935
 30
0.0
  0
VERTEX
  8
DETAIL
  6
CONTINUOUS
 62
     5
 10
-116.07126650108991
 20
65.679849639739672
 30
0.0
  0
VERTEX
  8
DETAIL
  6
CONTINUOUS
 62
     5
 10
-116.7423529303255
 20
65.288309439468833
 30
0.0
  0
VERTEX
  8
DETAIL
  6
CONTINUOUS
 62
     5
 10
-117.43968393321126
 20
64.945692808307328
 30
0.0
  0
VERTEX
  8
DETAIL
  6
CONTINUOUS
 62
     5
 10
-118.15967900282443
 20
64.653671142000888
 30
0.0
  0
VERTEX
  8
DETAIL
  6
CONTINUOUS
 62
     5
 10
-118.89867834575716
 20
64.413807708744855
 30
0.0
  0
VERTEX
  8
DETAIL
  6
CONTINUOUS
 62
     5
 10
-119.65295530142085
 20
64.227559374639014
 30
0.0
  0
VERTEX
  8
DETAIL
  6
CONTINUOUS
 62
     5
 10
-120.41882878075053
 20
64.096259814325876
 30
0.0
  0
VERTEX
  8
DETAIL
  6
CONTINUOUS
 62
     5
 10
-121.1920849695734
 20
64.021150960700183
 30
0.0
  0
SEQEND
  8
DETAIL
  6
CONTINUOUS
 62
     5
  0
POLYLINE
  8
DETAIL
  6
CONTINUOUS
 62
     5
 66
     1
 10
0.0
 20
0.0
 30
0.0
  0
VERTEX
  8
DETAIL
  6
CONTINUOUS
 62
     5
 10
-217.10403294527219
 20
64.452629875900115
 30
0.0
  0
VERTEX
  8
DETAIL
  6
CONTINUOUS
 62
     5
 10
-217.86068810758377
 20
64.550104752630958
 30
0.0
  0
VERTEX
  8
DETAIL
  6
CONTINUOUS
 62
     5
 10
-218.60834731489192
 20
64.702575330174042
 30
0.0
  0
VERTEX
  8
DETAIL
  6
CONTINUOUS
 62
     5
 10
-219.3430248278176
 20
64.908304185951351
 30
0.0
  0
VERTEX
  8
DETAIL
  6
CONTINUOUS
 62
     5
 10
-220.06132223890029
 20
65.165509323668573
 30
0.0
  0
VERTEX
  8
DETAIL
  6
CONTINUOUS
 62
     5
 10
-220.75987369905624
 20
65.472334727004778
 30
0.0
  0
VERTEX
  8
DETAIL
  6
CONTINUOUS
 62
     5
 10
-221.43545037396115
 20
65.826877880444627
 30
0.0
  0
VERTEX
  8
DETAIL
  6
CONTINUOUS
 62
     5
 10
-222.08495167617431
 20
66.227194031750741
 30
0.0
  0
VERTEX
  8
DETAIL
  6
CONTINUOUS
 62
     5
 10
-222.70534710073881
 20
66.671284431751474
 30
0.0
  0
VERTEX
  8
DETAIL
  6
CONTINUOUS
 62
     5
 10
-223.29365260690179
 20
67.157084787948335
 30
0.0
  0
VERTEX
  8
DETAIL
  6
CONTINUOUS
 62
     5
 10
-223.84691232423279
 20
67.682452623734164
 30
0.0
  0
VERTEX
  8
DETAIL
  6
CONTINUOUS
 62
     5
 10
-224.36217845782667
 20
68.245135198081442
 30
0.0
  0
VERTEX
  8
DETAIL
  6
CONTINUOUS
 62
     5
 10
-224.83649784795645
 20
68.842739876661255
 30
0.0
  0
VERTEX
  8
DETAIL
  6
CONTINUOUS
 62
     5
 10
-225.26690889629288
 20
69.472709991513511
 30
0.0
  0
VERTEX
  8
DETAIL
  6
CONTINUOUS
 62
     5
 10
-225.65044149864451
 20
70.132271500524936
 30
0.0
  0
VERTEX
  8
DETAIL
  6
CONTINUOUS
 62
     5
 10
-225.98413439028155
 20
70.818402732617969
 30
0.0
  0
VERTEX
  8
DETAIL
  6
CONTINUOUS
 62
     5
 10
-226.26505588033385
 20
71.527777298772889
 30
0.0
  0
VERTEX
  8
DETAIL
  6
CONTINUOUS
 62
     5
 10
-226.49034003610956
 20
72.256705488559206
 30
0.0
  0
VERTEX
  8
DETAIL
  6
CONTINUOUS
 62
     5
 10
-226.6572707125616
 20
73.001287156528633
 30
0.0
  0
VERTEX
  8
DETAIL
  6
CONTINUOUS
 62
     5
 10
-226.76329120817221
 20
73.756805555700566
 30
0.0
  0
SEQEND
  8
DETAIL
  6
CONTINUOUS
 62
     5
  0
POLYLINE
  8
DETAIL
  6
CONTINUOUS
 62
     5
 66
     1
 10
0.0
 20
0.0
 30
0.0
  0
VERTEX
  8
DETAIL
  6
CONTINUOUS
 62
     5
 10
-226.76329120817221
 20
233.75185157850069
 30
0.0
  0
VERTEX
  8
DETAIL
  6
CONTINUOUS
 62
     5
 10
-226.65727071378655
 20
234.50736997307135
 30
0.0
  0
VERTEX
  8
DETAIL
  6
CONTINUOUS
 62
     5
 10
-226.49034004351881
 20
235.25195161818198
 30
0.0
  0
VERTEX
  8
DETAIL
  6
CONTINUOUS
 62
     5
 10
-226.26505589792879
 20
235.98087978393059
 30
0.0
  0
VERTEX
  8
DETAIL
  6
CONTINUOUS
 62
     5
 10
-225.98413442171136
 20
236.69025433278074
 30
0.0
  0
VERTEX
  8
DETAIL
  6
CONTINUOUS
 62
     5
 10
-225.65044154637567
 20
237.37638554428977
 30
0.0
  0
VERTEX
  8
DETAIL
  6
CONTINUOUS
 62
     5
 10
-225.26690896314307
 20
238.03594703594939
 30
0.0
  0
VERTEX
  8
DETAIL
  6
CONTINUOUS
 62
     5
 10
-224.83649793609695
 20
238.66591713919146
 30
0.0
  0
VERTEX
  8
DETAIL
  6
CONTINUOUS
 62
     5
 10
-224.36217856880455
 20
239.263521806292
 30
0.0
  0
VERTEX
  8
DETAIL
  6
CONTINUOUS
 62
     5
 10
-223.84691245997482
 20
239.82620437160975
 30
0.0
  0
VERTEX
  8
DETAIL
  6
CONTINUOUS
 62
     5
 10
-223.29365276854563
 20
240.35157220387549
 30
0.0
  0
VERTEX
  8
DETAIL
  6
CONTINUOUS
 62
     5
 10
-222.7053472881453
 20
240.83737255865196
 30
0.0
  0
VERTEX
  8
DETAIL
  6
CONTINUOUS
 62
     5
 10
-222.08495188994326
 20
241.28146295943296
 30
0.0
  0
VERTEX
  8
DETAIL
  6
CONTINUOUS
 62
     5
 10
-221.43545061798847
 20
241.68177911549844
 30
0.0
  0
VERTEX
  8
DETAIL
  6
CONTINUOUS
 62
     5
 10
-220.75987396812465
 20
242.03632227906172
 30
0.0
  0
VERTEX
  8
DETAIL
  6
CONTINUOUS
 62
     5
 10
-220.06132251507961
 20
242.34314769716462
 30
0.0
  0
VERTEX
  8
DETAIL
  6
CONTINUOUS
 62
     5
 10
-219.34302514040724
 20
242.60035285069557
 30
0.0
  0
VERTEX
  8
DETAIL
  6
CONTINUOUS
 62
     5
 10
-218.60834765615033
 20
242.80608172710458
 30
0.0
  0
VERTEX
  8
DETAIL
  6
CONTINUOUS
 62
     5
 10
-217.86068824297851
 20
242.95855234792717
 30
0.0
  0
VERTEX
  8
DETAIL
  6
CONTINUOUS
 62
     5
 10
-217.10403294527217
 20
243.05602725829996
 30
0.0
  0
SEQEND
  8
DETAIL
  6
CONTINUOUS
 62
     5
  0
POLYLINE
  8
DETAIL
  6
CONTINUOUS
 62
     5
 66
     1
 10
0.0
 20
0.0
 30
0.0
  0
VERTEX
  8
DETAIL
  6
CONTINUOUS
 62
     5
 10
-121.1920849695734
 20
243.4875061736
 30
0.0
  0
VERTEX
  8
DETAIL
  6
CONTINUOUS
 62
     5
 10
-120.41882895585999
 20
243.41239735771956
 30
0.0
  0
VERTEX
  8
DETAIL
  6
CONTINUOUS
 62
     5
 10
-119.65295574230615
 20
243.28109784482504
 30
0.0
  0
VERTEX
  8
DETAIL
  6
CONTINUOUS
 62
     5
 10
-118.89867875779288
 20
243.09484953990105
 30
0.0
  0
VERTEX
  8
DETAIL
  6
CONTINUOUS
 62
     5
 10
-118.15967936809467
 20
242.85498613006871
 30
0.0
  0
VERTEX
  8
DETAIL
  6
CONTINUOUS
 62
     5
 10
-117.43968428879357
 20
242.56296448307265
 30
0.0
  0
VERTEX
  8
DETAIL
  6
CONTINUOUS
 62
     5
 10
-116.74235325533596
 20
242.22034786801376
 30
0.0
  0
VERTEX
  8
DETAIL
  6
CONTINUOUS
 62
     5
 10
-116.07126678783283
 20
241.82880767734883
 30
0.0
  0
VERTEX
  8
DETAIL
  6
CONTINUOUS
 62
     5
 10
-115.42998434044081
 20
241.39015029722566
 30
0.0
  0
VERTEX
  8
DETAIL
  6
CONTINUOUS
 62
     5
 10
-114.82205354765219
 20
240.90633006071425
 30
0.0
  0
VERTEX
  8
DETAIL
  6
CONTINUOUS
 62
     5
 10
-114.25101664812493
 20
240.37946657158335
 30
0.0
  0
VERTEX
  8
DETAIL
  6
CONTINUOUS
 62
     5
 10
-113.72041976771979
 20
239.81189428592489
 30
0.0
  0
VERTEX
  8
DETAIL
  6
CONTINUOUS
 62
     5
 10
-113.23380648164765
 20
239.20618956336176
 30
0.0
  0
VERTEX
  8
DETAIL
  6
CONTINUOUS
 62
     5
 10
-112.7947056551757
 20
238.56519765823572
 30
0.0
  0
VERTEX
  8
DETAIL
  6
CONTINUOUS
 62
     5
 10
-112.40660634757144
 20
237.89209989017778
 30
0.0
  0
VERTEX
  8
DETAIL
  6
CONTINUOUS
 62
     5
 10
-112.07291177099154
 20
237.19043160846513
 30
0.0
  0
VERTEX
  8
DETAIL
  6
CONTINUOUS
 62
     5
 10
-111.79689546493768
 20
236.46413237217939
 30
0.0
  0
VERTEX
  8
DETAIL
  6
CONTINUOUS
 62
     5
 10
-111.58162908791638
 20
235.71760224087424
 30
0.0
  0
VERTEX
  8
DETAIL
  6
CONTINUOUS
 62
     5
 10
-111.42986712995527
 20
234.95548959158492
 30
0.0
  0
VERTEX
  8
DETAIL
  6
CONTINUOUS
 62
     5
 10
-111.344007439473
 20
234.18333049370059
 30
0.0
  0
SEQEND
  8
DETAIL
  6
CONTINUOUS
 62
     5
  0
POLYLINE
  8
DETAIL
  6
CONTINUOUS
 62
     5
 66
     1
 10
0.0
 20
0.0
 30
0.0
  0
VERTEX
  8
DETAIL
  6
CONTINUOUS
 62
     5
 10
-242.69999997527341
 20
575.87891482790042
 30
0.0
  0
VERTEX
  8
DETAIL
  6
CONTINUOUS
 62
     5
 10
-242.68746924921672
 20
576.23306023087639
 30
0.0
  0
VERTEX
  8
DETAIL
  6
CONTINUOUS
 62
     5
 10
-242.64938224502438
 20
576.58551712751216
 30
0.0
  0
VERTEX
  8
DETAIL
  6
CONTINUOUS
 62
     5
 10
-242.58502319317876
 20
576.93406754238515
 30
0.0
  0
VERTEX
  8
DETAIL
  6
CONTINUOUS
 62
     5
 10
-242.49374792917976
 20
577.27652248292009
 30
0.0
  0
VERTEX
  8
DETAIL
  6
CONTINUOUS
 62
     5
 10
-242.3750324076598
 20
577.61047958917277
 30
0.0
  0
VERTEX
  8
DETAIL
  6
CONTINUOUS
 62
     5
 10
-242.22852980348037
 20
577.93321617301547
 30
0.0
  0
VERTEX
  8
DETAIL
  6
CONTINUOUS
 62
     5
 10
-242.05418617958395
 20
578.24178493804709
 30
0.0
  0
VERTEX
  8
DETAIL
  6
CONTINUOUS
 62
     5
 10
-241.85226917670445
 20
578.53306577105445
 30
0.0
  0
VERTEX
  8
DETAIL
  6
CONTINUOUS
 62
     5
 10
-241.62352912894389
 20
578.80378235252863
 30
0.0
  0
VERTEX
  8
DETAIL
  6
CONTINUOUS
 62
     5
 10
-241.36924747669417
 20
579.05065311674684
 30
0.0
  0
VERTEX
  8
DETAIL
  6
CONTINUOUS
 62
     5
 10
-241.0912704950097
 20
579.27050477656485
 30
0.0
  0
VERTEX
  8
DETAIL
  6
CONTINUOUS
 62
     5
 10
-240.79207262702243
 20
579.46045631223819
 30
0.0
  0
VERTEX
  8
DETAIL
  6
CONTINUOUS
 62
     5
 10
-240.47466114405159
 20
579.6181029910399
 30
0.0
  0
VERTEX
  8
DETAIL
  6
CONTINUOUS
 62
     5
 10
-240.14247919789457
 20
579.74162754260794
 30
0.0
  0
VERTEX
  8
DETAIL
  6
CONTINUOUS
 62
     5
 10
-239.79927017379339
 20
579.82991419177904
 30
0.0
  0
VERTEX
  8
DETAIL
  6
CONTINUOUS
 62
     5
 10
-239.44873437276186
 20
579.88260435475536
 30
0.0
  0
VERTEX
  8
DETAIL
  6
CONTINUOUS
 62
     5
 10
-239.09479363847191
 20
579.90000000000032
 30
0.0
  0
SEQEND
  8
DETAIL
  6
CONTINUOUS
 62
     5
  0
POLYLINE
  8
DETAIL
  6
CONTINUOUS
 62
     5
 66
     1
 10
0.0
 20
0.0
 30
0.0
  0
VERTEX
  8
DETAIL
  6
CONTINUOUS
 62
     5
 10
-104.9090524614717
 20
579.90000000000032
 30
0.0
  0
VERTEX
  8
DETAIL
  6
CONTINUOUS
 62
     5
 10
-104.54177056574126
 20
579.88077157317502
 30
0.0
  0
VERTEX
  8
DETAIL
  6
CONTINUOUS
 62
     5
 10
-104.17847273789887
 20
579.82284889514835
 30
0.0
  0
VERTEX
  8
DETAIL
  6
CONTINUOUS
 62
     5
 10
-103.8235325389924
 20
579.7264484756389
 30
0.0
  0
VERTEX
  8
DETAIL
  6
CONTINUOUS
 62
     5
 10
-103.48093783797729
 20
579.59256159801009
 30
0.0
  0
VERTEX
  8
DETAIL
  6
CONTINUOUS
 62
     5
 10
-103.15454921299755
 20
579.42295679860615
 30
0.0
  0
VERTEX
  8
DETAIL
  6
CONTINUOUS
 62
     5
 10
-102.84774179097923
 20
579.22006535864352
 30
0.0
  0
VERTEX
  8
DETAIL
  6
CONTINUOUS
 62
     5
 10
-102.56333390315291
 20
578.98679373540983
 30
0.0
  0
VERTEX
  8
DETAIL
  6
CONTINUOUS
 62
     5
 10
-102.30356087847696
 20
578.72637182034282
 30
0.0
  0
VERTEX
  8
DETAIL
  6
CONTINUOUS
 62
     5
 10
-102.07002338401277
 20
578.44217695295902
 30
0.0
  0
VERTEX
  8
DETAIL
  6
CONTINUOUS
 62
     5
 10
-101.8637974188006
 20
578.13757111838243
 30
0.0
  0
VERTEX
  8
DETAIL
  6
CONTINUOUS
 62
     5
 10
-101.68550999210946
 20
577.8158235523631
 30
0.0
  0
VERTEX
  8
DETAIL
  6
CONTINUOUS
 62
     5
 10
-101.53538287983363
 20
577.47999391436736
 30
0.0
  0
VERTEX
  8
DETAIL
  6
CONTINUOUS
 62
     5
 10
-101.41338854113447
 20
577.13295559936637
 30
0.0
  0
VERTEX
  8
DETAIL
  6
CONTINUOUS
 62
     5
 10
-101.31927556415161
 20
576.77736435761517
 30
0.0
  0
VERTEX
  8
DETAIL
  6
CONTINUOUS
 62
     5
 10
-101.25266111961001
 20
576.41557855540123
 30
0.0
  0
VERTEX
  8
DETAIL
  6
CONTINUOUS
 62
     5
 10
-101.21307565663264
 20
576.04977574062013
 30
0.0
  0
VERTEX
  8
DETAIL
  6
CONTINUOUS
 62
     5
 10
-101.19999997527241
 20
575.68222113500065
 30
0.0
  0
SEQEND
  8
DETAIL
  6
CONTINUOUS
 62
     5
  0
LINE
  8
DETAIL
  6
CONTINUOUS
 62
     5
 10
-154.8999999752736
 20
94.500000000000455
 30
0.0
 11
-169.90009997527341
 21
94.500000000000455
 31
0.0
  0
LINE
  8
DETAIL
  6
CONTINUOUS
 62
     5
 10
-154.8999999752736
 20
94.500000000000455
 30
0.0
 11
-139.89989997527391
 21
94.500000000000455
 31
0.0
  0
LINE
  8
DETAIL
  6
CONTINUOUS
 62
     5
 10
-188.39999997527269
 20
137.0000000000004
 30
0.0
 11
-203.4000999752725
 21
137.0000000000004
 31
0.0
  0
LINE
  8
DETAIL
  6
CONTINUOUS
 62
     5
 10
-188.39999997527269
 20
137.0000000000004
 30
0.0
 11
-173.399899975273
 21
137.0000000000004
 31
0.0
  0
LINE
  8
DETAIL
  6
CONTINUOUS
 62
     5
 10
-165.96031655713071
 20
149.30609472399391
 30
0.0
 11
-172.38148687740059
 21
156.95854752193031
 31
0.0
  0
LINE
  8
DETAIL
  6
CONTINUOUS
 62
     5
 10
-126.5441410488674
 20
110.48997114228111
 30
0.0
 11
-134.22903855901399
 21
119.6484645000434
 31
0.0
  0
LINE
  8
DETAIL
  6
CONTINUOUS
 62
     5
 10
-188.39999997527269
 20
137.0000000000004
 30
0.0
 11
-188.39999997527269
 21
121.99990000000069
 31
0.0
  0
LINE
  8
DETAIL
  6
CONTINUOUS
 62
     5
 10
-188.39999997527269
 20
137.0000000000004
 30
0.0
 11
-188.39999997527269
 21
152.0001000000002
 31
0.0
  0
LINE
  8
DETAIL
  6
CONTINUOUS
 62
     5
 10
-154.8999999752736
 20
94.500000000000455
 30
0.0
 11
-154.8999999752736
 21
79.499900000000693
 31
0.0
  0
LINE
  8
DETAIL
  6
CONTINUOUS
 62
     5
 10
-154.8999999752736
 20
94.500000000000455
 30
0.0
 11
-154.8999999752736
 21
109.5001000000002
 31
0.0
  0
LINE
  8
DETAIL
  6
CONTINUOUS
 62
     5
 10
-172.38148687740059
 20
156.95854752193031
 30
0.0
 11
-191.81705179891739
 21
140.65017216505339
 31
0.0
  0
LINE
  8
DETAIL
  6
CONTINUOUS
 62
     5
 10
-200.55675146374909
 20
126.79927430968741
 30
0.0
 11
-161.39667379669839
 21
159.65848103704201
 31
0.0
  0
LINE
  8
DETAIL
  6
CONTINUOUS
 62
     5
 10
-165.96031655713071
 20
149.30609472399391
 30
0.0
 11
-185.32212429801979
 21
133.05960898953319
 31
0.0
  0
LINE
  8
DETAIL
  6
CONTINUOUS
 62
     5
 10
-159.1376023150346
 20
98.747673058282089
 30
0.0
 11
-134.22903855901399
 21
119.6484645000434
 31
0.0
  0
LINE
  8
DETAIL
  6
CONTINUOUS
 62
     5
 10
-123.1328187458812
 20
121.15586165723791
 30
0.0
 11
-166.23658144402449
 21
84.987467392315679
 31
0.0
  0
LINE
  8
DETAIL
  6
CONTINUOUS
 62
     5
 10
-151.45270480521589
 20
89.589179700855084
 30
0.0
 11
-126.5441410488674
 21
110.48997114228111
 31
0.0
  0
ARC
  8
DETAIL
  6
CONTINUOUS
 62
     5
 10
-188.39999997527269
 20
137.0000000000004
 30
0.0
 40
5.0
 50
126.88928077057921
 51
312.00627745139298
  0
ARC
  8
DETAIL
  6
CONTINUOUS
 62
     5
 10
-154.8999999752736
 20
94.500000000000455
 30
0.0
 40
6.0
 50
125.0680681579372
 51
314.93199874163918
  0
INSERT
  8
SIZE
  2
SD4
 10
0.0
 20
0.0
 30
0.0
 41
1.0
 42
1.0
 43
1.0
1001
ACAD
1000
DSTYLE
1002
{
1070
    40
1040
10.0
1070
   140
1040
3.0
1070
   144
1040
1.0
1070
   176
1070
   256
1070
   177
1070
   256
1070
   178
1070
   256
1002
}
  0
INSERT
  8
SIZE
  2
SD5
 10
0.0
 20
0.0
 30
0.0
 41
1.0
 42
1.0
 43
1.0
1001
ACAD
1000
DSTYLE
1002
{
1070
    40
1040
10.0
1070
   140
1040
3.0
1070
   144
1040
1.0
1070
   176
1070
   256
1070
   177
1070
   256
1070
   178
1070
   256
1002
}
  0
INSERT
  8
SIZE
  2
SD6
 10
0.0
 20
0.0
 30
0.0
 41
1.0
 42
1.0
 43
1.0
1001
ACAD
1000
DSTYLE
1002
{
1070
    40
1040
10.0
1070
   140
1040
3.0
1070
   144
1040
10.0
1070
   176
1070
   256
1070
   177
1070
   256
1070
   178
1070
   256
1002
}
  0
INSERT
  8
SIZE
  2
SD7
 10
0.0
 20
0.0
 30
0.0
 41
1.0
 42
1.0
 43
1.0
1001
ACAD
1000
DSTYLE
1002
{
1070
    40
1040
10.0
1070
   140
1040
3.0
1070
   144
1040
10.0
1070
   176
1070
   256
1070
   177
1070
   256
1070
   178
1070
   256
1002
}
  0
LINE
  8
OUTLINE
  6
CONTINUOUS
 62
     3
 10
-349.79999997527381
 20
0.0
 30
0.0
 11
-258.69999997527248
 21
0.0
 31
0.0
  0
LINE
  8
OUTLINE
  6
CONTINUOUS
 62
     3
 10
-92.899999975273204
 20
0.0
 30
0.0
 11
-1.79999997527193
 21
0.0
 31
0.0
  0
LINE
  8
OUTLINE
  6
CONTINUOUS
 62
     3
 10
-257.36547242977213
 20
3.0000000000006821
 30
0.0
 11
-94.234527520773554
 21
3.0000000000006821
 31
0.0
  0
LINE
  8
OUTLINE
  6
CONTINUOUS
 62
     3
 10
-111.7031170105729
 20
3.006045552000387
 30
0.0
 11
-149.1901308507731
 21
3.0060459955996062
 31
0.0
  0
LINE
  8
OUTLINE
  6
CONTINUOUS
 62
     3
 10
-239.4460465968728
 20
3.0060459445996912
 30
0.0
 11
-257.36979033797343
 21
3.0060455100999661
 31
0.0
  0
LINE
  8
OUTLINE
  6
CONTINUOUS
 62
     3
 10
-349.79999997527381
 20
3.600000000000136
 30
0.0
 11
-312.95914331327191
 21
3.600000000000136
 31
0.0
  0
LINE
  8
OUTLINE
  6
CONTINUOUS
 62
     3
 10
-38.640856637373872
 20
3.600000000000136
 30
0.0
 11
-1.79999997527193
 21
3.600000000000136
 31
0.0
  0
LINE
  8
OUTLINE
  6
CONTINUOUS
 62
     3
 10
-288.75147018347252
 20
641.64852753380069
 30
0.0
 11
-290.2244754763733
 21
640.17552205960124
 31
0.0
  0
LINE
  8
OUTLINE
  6
CONTINUOUS
 62
     3
 10
-320.3999999752732
 20
12.400000000000089
 30
0.0
 11
-307.84677974910392
 21
12.400000000000089
 31
0.0
  0
LINE
  8
OUTLINE
  6
CONTINUOUS
 62
     3
 10
-43.053220201542899
 20
12.400000000000089
 30
0.0
 11
-30.499999975273109
 21
12.400000000000089
 31
0.0
  0
LINE
  8
OUTLINE
  6
CONTINUOUS
 62
     3
 10
-330.41745304627329
 20
44.513601591900162
 30
0.0
 11
-320.3999999752732
 21
44.426180603400091
 31
0.0
  0
LINE
  8
OUTLINE
  6
CONTINUOUS
 62
     3
 10
-208.75147077547169
 20
641.64852919980035
 30
0.0
 11
-210.22426252687231
 21
640.17573744840115
 31
0.0
  0
LINE
  8
OUTLINE
  6
CONTINUOUS
 62
     3
 10
-127.85147077547251
 20
641.64852919980035
 30
0.0
 11
-129.3242625268731
 21
640.17573744840115
 31
0.0
  0
LINE
  8
OUTLINE
  6
CONTINUOUS
 62
     3
 10
-332.39999997527372
 20
46.513525438000443
 30
0.0
 11
-332.39999997527372
 21
248.60000000002881
 31
0.0
  0
LINE
  8
OUTLINE
  6
CONTINUOUS
 62
     3
 10
-320.3999999752732
 20
631.35430572810014
 30
0.0
 11
-320.39999997527281
 21
582.3738193966002
 31
0.0
  0
LINE
  8
OUTLINE
  6
CONTINUOUS
 62
     3
 10
-320.39999997527281
 20
44.426180603399871
 30
0.0
 11
-320.3999999752732
 21
12.400000000000089
 31
0.0
  0
LINE
  8
OUTLINE
  6
CONTINUOUS
 62
     3
 10
-39.506882041173867
 20
4.0999999999996808
 30
0.0
 11
-43.897745353772727
 21
11.70519834660012
 31
0.0
  0
LINE
  8
OUTLINE
  6
CONTINUOUS
 62
     3
 10
-307.45898442884942
 20
12.12655463747523
 30
0.0
 11
-312.09311790947191
 21
4.0999999999996808
 31
0.0
  0
LINE
  8
OUTLINE
  6
CONTINUOUS
 62
     3
 10
-21.999999975271749
 20
559.51309296080012
 30
0.0
 11
-22.19999997527384
 21
558.79999999999995
 31
0.0
  0
LINE
  8
OUTLINE
  6
CONTINUOUS
 62
     3
 10
-30.499999975273109
 20
631.35430572810014
 30
0.0
 11
-30.499999975273109
 21
614.70948737253343
 31
0.0
  0
LINE
  8
OUTLINE
  6
CONTINUOUS
 62
     3
 10
-30.499999975273109
 20
559.70948737250069
 30
0.0
 11
-30.499999975273109
 21
12.400000000000089
 31
0.0
  0
LINE
  8
OUTLINE
  6
CONTINUOUS
 62
     3
 10
-7.4999999752735667
 20
559.89278881620044
 30
0.0
 11
-7.4999999752735667
 21
610.4971981820006
 31
0.0
  0
LINE
  8
OUTLINE
  6
CONTINUOUS
 62
     3
 10
-223.04853129977161
 20
641.64852670920004
 30
0.0
 11
-221.5757404579727
 21
640.1757345971007
 31
0.0
  0
LINE
  8
OUTLINE
  6
CONTINUOUS
 62
     3
 10
-22.799999975273298
 20
558.79999999999995
 30
0.0
 11
-22.999999975273109
 21
559.51309296080012
 31
0.0
  0
LINE
  8
OUTLINE
  6
CONTINUOUS
 62
     3
 10
-21.999999975275841
 20
559.51309296078318
 30
0.0
 11
-7.4999999752735667
 21
559.8927888235005
 31
0.0
  0
LINE
  8
OUTLINE
  6
CONTINUOUS
 62
     3
 10
-22.19999997527384
 20
558.79999999999995
 30
0.0
 11
-22.799999975273298
 21
558.79999999999995
 31
0.0
  0
LINE
  8
OUTLINE
  6
CONTINUOUS
 62
     3
 10
-30.499999975273109
 20
559.70948737250069
 30
0.0
 11
-22.999999975267201
 21
559.51309296078136
 31
0.0
  0
LINE
  8
OUTLINE
  6
CONTINUOUS
 62
     3
 10
-330.41745304627329
 20
582.28639840810024
 30
0.0
 11
-320.3999999752732
 21
582.37381939660065
 31
0.0
  0
LINE
  8
OUTLINE
  6
CONTINUOUS
 62
     3
 10
-142.1485312997724
 20
641.64852670920004
 30
0.0
 11
-140.6757404579734
 21
640.1757345971007
 31
0.0
  0
LINE
  8
OUTLINE
  6
CONTINUOUS
 62
     3
 10
-43.774516575672799
 20
11.828427124700051
 30
0.0
 11
-43.897745353772727
 21
11.70519834660012
 31
0.0
  0
LINE
  8
OUTLINE
  6
CONTINUOUS
 62
     3
 10
-129.74852222717161
 20
639.99999999999966
 30
0.0
 11
-140.25147183787379
 21
639.99999999999966
 31
0.0
  0
LINE
  8
OUTLINE
  6
CONTINUOUS
 62
     3
 10
-210.64852516994691
 20
640.00000000000739
 30
0.0
 11
-221.1514777234315
 21
640.00000000002967
 31
0.0
  0
LINE
  8
OUTLINE
  6
CONTINUOUS
 62
     3
 10
-30.499999975273109
 20
614.70948737253343
 30
0.0
 11
-22.499999975273571
 21
614.50000000000057
 31
0.0
  0
LINE
  8
OUTLINE
  6
CONTINUOUS
 62
     3
 10
-62.148531039272711
 20
641.64852703379995
 30
0.0
 11
-60.675526031373472
 21
640.17552158139983
 31
0.0
  0
LINE
  8
OUTLINE
  6
CONTINUOUS
 62
     3
 10
-287.90294257147298
 20
642.00000000000068
 30
0.0
 11
-223.89705855787309
 21
642.00000000000068
 31
0.0
  0
LINE
  8
OUTLINE
  6
CONTINUOUS
 62
     3
 10
-207.90294139277239
 20
642.00000000000068
 30
0.0
 11
-142.9970585578717
 21
642.00000000000068
 31
0.0
  0
LINE
  8
OUTLINE
  6
CONTINUOUS
 62
     3
 10
-127.0029413927732
 20
642.00000000000068
 30
0.0
 11
-62.997058265173571
 21
642.00000000000068
 31
0.0
  0
LINE
  8
OUTLINE
  6
CONTINUOUS
 62
     3
 10
-22.499999975273571
 20
614.50000000000057
 30
0.0
 11
-7.5002472566739007
 21
610.48082837240031
 31
0.0
  0
ARC
  8
OUTLINE
  6
CONTINUOUS
 62
     3
 10
-312.95914331327191
 20
4.6000000000003629
 30
0.0
 40
1.0
 50
270.0
 51
330.00000000001398
  0
ARC
  8
OUTLINE
  6
CONTINUOUS
 62
     3
 10
-349.79999997527381
 20
1.7999999999994989
 30
0.0
 40
1.8
 50
90.0
 51
270.01899414416079
  0
ARC
  8
OUTLINE
  6
CONTINUOUS
 62
     3
 10
-258.69999997527248
 20
1.7999999999994989
 30
0.0
 40
1.8
 50
270.0
 51
42.069016222612873
  0
ARC
  8
OUTLINE
  6
CONTINUOUS
 62
     3
 10
-38.640856637373872
 20
4.6000000000003629
 30
0.0
 40
1.0
 50
209.99999999998599
 51
270.0
  0
ARC
  8
OUTLINE
  6
CONTINUOUS
 62
     3
 10
-92.899999975273204
 20
1.7999999999994989
 30
0.0
 40
1.8
 50
138.18968510416491
 51
270.0
  0
ARC
  8
OUTLINE
  6
CONTINUOUS
 62
     3
 10
-1.79999997527193
 20
1.7999999999994989
 30
0.0
 40
1.8
 50
269.98100585583921
 51
90.0
  0
ARC
  8
OUTLINE
  6
CONTINUOUS
 62
     3
 10
-221.151471837873
 20
640.60000000000048
 30
0.0
 40
0.6
 50
224.9997951148766
 51
269.99943797056369
  0
ARC
  8
OUTLINE
  6
CONTINUOUS
 62
     3
 10
-35.499999975273113
 20
631.35430545310078
 30
0.0
 40
5.0
 50
0.0000031512345473
 51
73.376157075542238
  0
ARC
  8
OUTLINE
  6
CONTINUOUS
 62
     3
 10
-315.3999999752732
 20
631.35430563610021
 30
0.0
 40
5.0
 50
106.6238435244418
 51
179.99999894620129
  0
ARC
  8
OUTLINE
  6
CONTINUOUS
 62
     3
 10
-290.64873895227311
 20
640.59978672129967
 30
0.0
 40
0.6
 50
270.122855570132
 51
314.99991992875562
  0
ARC
  8
OUTLINE
  6
CONTINUOUS
 62
     3
 10
-140.25147183787379
 20
640.60000000000048
 30
0.0
 40
0.6
 50
224.9997951148766
 51
270.0
  0
ARC
  8
OUTLINE
  6
CONTINUOUS
 62
     3
 10
-210.64852222717309
 20
640.60000000000048
 30
0.0
 40
0.6
 50
269.99971898580287
 51
314.99980746867641
  0
ARC
  8
OUTLINE
  6
CONTINUOUS
 62
     3
 10
-60.251263038072011
 20
640.59978672569991
 30
0.0
 40
0.6
 50
225.00014524587189
 51
269.8772424495246
  0
ARC
  8
OUTLINE
  6
CONTINUOUS
 62
     3
 10
-129.74852222717161
 20
640.60000000000048
 30
0.0
 40
0.6
 50
269.99971898580287
 51
314.99980746867641
  0
ARC
  8
OUTLINE
  6
CONTINUOUS
 62
     3
 10
-223.89705625017359
 20
640.8000000000003
 30
0.0
 40
1.1999999999999991
 50
45.000071734953089
 51
90.000110183777721
  0
ARC
  8
OUTLINE
  6
CONTINUOUS
 62
     3
 10
-287.90294144237168
 20
640.8000000000003
 30
0.0
 40
1.1999999999999991
 50
90.000053906577037
 51
135.00004076119049
  0
ARC
  8
OUTLINE
  6
CONTINUOUS
 62
     3
 10
-142.99705625017211
 20
640.8000000000003
 30
0.0
 40
1.1999999999999991
 50
45.000071734953089
 51
90.000110183777721
  0
ARC
  8
OUTLINE
  6
CONTINUOUS
 62
     3
 10
-207.9029390850728
 20
640.8000000000003
 30
0.0
 40
1.1999999999999991
 50
90.000110183256623
 51
135.00009644012999
  0
ARC
  8
OUTLINE
  6
CONTINUOUS
 62
     3
 10
-62.997056250172143
 20
640.8000000000003
 30
0.0
 40
1.1999999999999991
 50
45.000065870031598
 51
90.000096211467678
  0
ARC
  8
OUTLINE
  6
CONTINUOUS
 62
     3
 10
-127.00293908507361
 20
640.8000000000003
 30
0.0
 40
1.1999999999999991
 50
90.000110183256623
 51
135.00009644012999
  0
ARC
  8
OUTLINE
  6
CONTINUOUS
 62
     3
 10
-309.95391049967378
 20
8.9999999999997726
 30
0.0
 40
4.0
 50
51.410855327155282
 51
58.346124010658677
  0
ARC
  8
OUTLINE
  6
CONTINUOUS
 62
     3
 10
-40.946089450972522
 20
8.9999999999997726
 30
0.0
 40
4.0
 50
121.6538759893413
 51
134.99999999994469
  0
ARC
  8
OUTLINE
  6
CONTINUOUS
 62
     3
 10
-330.3999999752732
 20
46.513525438000443
 30
0.0
 40
2.0
 50
180.0
 51
269.5000000000345
  0
ARC
  8
OUTLINE
  6
CONTINUOUS
 62
     3
 10
1766.620000024727
 20
313.40000000000032
 30
0.0
 40
2100.02
 50
178.23175210372511
 51
181.7682478962748
  0
ARC
  8
OUTLINE
  6
CONTINUOUS
 62
     3
 10
-330.3999999752732
 20
580.28647456190015
 30
0.0
 40
2.0
 50
90.499999999965524
 51
180.0
  0
POLYLINE
  8
OUTLINE
  6
CONTINUOUS
 62
     3
 66
     1
 10
0.0
 20
0.0
 30
0.0
  0
VERTEX
  8
OUTLINE
  6
CONTINUOUS
 62
     3
 10
-316.8304357339735
 20
636.14532373480074
 30
0.0
  0
VERTEX
  8
OUTLINE
  6
CONTINUOUS
 62
     3
 10
-316.10255646468437
 20
636.35938591762147
 30
0.0
  0
VERTEX
  8
OUTLINE
  6
CONTINUOUS
 62
     3
 10
-315.37287936462263
 20
636.56747104486521
 30
0.0
  0
VERTEX
  8
OUTLINE
  6
CONTINUOUS
 62
     3
 10
-314.64147892384977
 20
636.76955990146007
 30
0.0
  0
VERTEX
  8
OUTLINE
  6
CONTINUOUS
 62
     3
 10
-313.90842963242716
 20
636.96563327233332
 30
0.0
  0
VERTEX
  8
OUTLINE
  6
CONTINUOUS
 62
     3
 10
-313.17380598041592
 20
637.1556719424126
 30
0.0
  0
VERTEX
  8
OUTLINE
  6
CONTINUOUS
 62
     3
 10
-312.4376824578776
 20
637.33965669662575
 30
0.0
  0
VERTEX
  8
OUTLINE
  6
CONTINUOUS
 62
     3
 10
-311.7001335548735
 20
637.51756831990065
 30
0.0
  0
SEQEND
  8
OUTLINE
  6
CONTINUOUS
 62
     3
  0
POLYLINE
  8
OUTLINE
  6
CONTINUOUS
 62
     3
 66
     1
 10
0.0
 20
0.0
 30
0.0
  0
VERTEX
  8
OUTLINE
  6
CONTINUOUS
 62
     3
 10
-311.7001335548735
 20
637.51756831990065
 30
0.0
  0
VERTEX
  8
OUTLINE
  6
CONTINUOUS
 62
     3
 10
-310.96114711511524
 20
637.68940836414151
 30
0.0
  0
VERTEX
  8
OUTLINE
  6
CONTINUOUS
 62
     3
 10
-310.22070982395104
 20
637.85517965457996
 30
0.0
  0
VERTEX
  8
OUTLINE
  6
CONTINUOUS
 62
     3
 10
-309.47889668729596
 20
638.01486435233483
 30
0.0
  0
VERTEX
  8
OUTLINE
  6
CONTINUOUS
 62
     3
 10
-308.73578271106544
 20
638.16844461852531
 30
0.0
  0
VERTEX
  8
OUTLINE
  6
CONTINUOUS
 62
     3
 10
-307.99144290117454
 20
638.31590261427039
 30
0.0
  0
VERTEX
  8
OUTLINE
  6
CONTINUOUS
 62
     3
 10
-307.2459522635387
 20
638.45722050068912
 30
0.0
  0
VERTEX
  8
OUTLINE
  6
CONTINUOUS
 62
     3
 10
-306.49938580407297
 20
638.59238043890059
 30
0.0
  0
SEQEND
  8
OUTLINE
  6
CONTINUOUS
 62
     3
  0
POLYLINE
  8
OUTLINE
  6
CONTINUOUS
 62
     3
 66
     1
 10
0.0
 20
0.0
 30
0.0
  0
VERTEX
  8
OUTLINE
  6
CONTINUOUS
 62
     3
 10
-306.49938580407297
 20
638.59238043890059
 30
0.0
  0
VERTEX
  8
OUTLINE
  6
CONTINUOUS
 62
     3
 10
-305.84524308344521
 20
638.70559416826177
 30
0.0
  0
VERTEX
  8
OUTLINE
  6
CONTINUOUS
 62
     3
 10
-305.19027355128446
 20
638.81408897819222
 30
0.0
  0
VERTEX
  8
OUTLINE
  6
CONTINUOUS
 62
     3
 10
-304.53450292103065
 20
638.91786088582467
 30
0.0
  0
VERTEX
  8
OUTLINE
  6
CONTINUOUS
 62
     3
 10
-303.87797977151575
 20
639.01690498208563
 30
0.0
  0
VERTEX
  8
OUTLINE
  6
CONTINUOUS
 62
     3
 10
-303.22075304106608
 20
639.11121634333927
 30
0.0
  0
VERTEX
  8
OUTLINE
  6
CONTINUOUS
 62
     3
 10
-302.56287166800826
 20
639.20079004595027
 30
0.0
  0
VERTEX
  8
OUTLINE
  6
CONTINUOUS
 62
     3
 10
-301.9043845906686
 20
639.28562116628257
 30
0.0
  0
VERTEX
  8
OUTLINE
  6
CONTINUOUS
 62
     3
 10
-301.24534074737358
 20
639.36570478070075
 30
0.0
  0
SEQEND
  8
OUTLINE
  6
CONTINUOUS
 62
     3
  0
POLYLINE
  8
OUTLINE
  6
CONTINUOUS
 62
     3
 66
     1
 10
0.0
 20
0.0
 30
0.0
  0
VERTEX
  8
OUTLINE
  6
CONTINUOUS
 62
     3
 10
-301.24534074737358
 20
639.36570478070075
 30
0.0
  0
VERTEX
  8
OUTLINE
  6
CONTINUOUS
 62
     3
 10
-300.49149443858812
 20
639.45141335680273
 30
0.0
  0
VERTEX
  8
OUTLINE
  6
CONTINUOUS
 62
     3
 10
-299.73690503007913
 20
639.53092615997389
 30
0.0
  0
VERTEX
  8
OUTLINE
  6
CONTINUOUS
 62
     3
 10
-298.98164916158089
 20
639.60423668979831
 30
0.0
  0
VERTEX
  8
OUTLINE
  6
CONTINUOUS
 62
     3
 10
-298.22580347282718
 20
639.67133844585942
 30
0.0
  0
VERTEX
  8
OUTLINE
  6
CONTINUOUS
 62
     3
 10
-297.46944460355195
 20
639.73222492774096
 30
0.0
  0
VERTEX
  8
OUTLINE
  6
CONTINUOUS
 62
     3
 10
-296.71264919348926
 20
639.78688963502657
 30
0.0
  0
VERTEX
  8
OUTLINE
  6
CONTINUOUS
 62
     3
 10
-295.95549388237299
 20
639.83532606729989
 30
0.0
  0
SEQEND
  8
OUTLINE
  6
CONTINUOUS
 62
     3
  0
POLYLINE
  8
OUTLINE
  6
CONTINUOUS
 62
     3
 66
     1
 10
0.0
 20
0.0
 30
0.0
  0
VERTEX
  8
OUTLINE
  6
CONTINUOUS
 62
     3
 10
-295.95549388237299
 20
639.83532606729989
 30
0.0
  0
VERTEX
  8
OUTLINE
  6
CONTINUOUS
 62
     3
 10
-295.197965689206
 20
639.87753331299461
 30
0.0
  0
VERTEX
  8
OUTLINE
  6
CONTINUOUS
 62
     3
 10
-294.44005169690331
 20
639.9135114343768
 30
0.0
  0
VERTEX
  8
OUTLINE
  6
CONTINUOUS
 62
     3
 10
-293.68182890505688
 20
639.94325537597263
 30
0.0
  0
VERTEX
  8
OUTLINE
  6
CONTINUOUS
 62
     3
 10
-292.92337431325865
 20
639.96676008230725
 30
0.0
  0
VERTEX
  8
OUTLINE
  6
CONTINUOUS
 62
     3
 10
-292.16476492110058
 20
639.98402049790627
 30
0.0
  0
VERTEX
  8
OUTLINE
  6
CONTINUOUS
 62
     3
 10
-291.40607772817452
 20
639.9950315672952
 30
0.0
  0
VERTEX
  8
OUTLINE
  6
CONTINUOUS
 62
     3
 10
-290.64738973407248
 20
639.99978823499964
 30
0.0
  0
SEQEND
  8
OUTLINE
  6
CONTINUOUS
 62
     3
  0
POLYLINE
  8
OUTLINE
  6
CONTINUOUS
 62
     3
 66
     1
 10
0.0
 20
0.0
 30
0.0
  0
VERTEX
  8
OUTLINE
  6
CONTINUOUS
 62
     3
 10
-34.069564216672923
 20
636.14532373480074
 30
0.0
  0
VERTEX
  8
OUTLINE
  6
CONTINUOUS
 62
     3
 10
-37.264533023977322
 20
637.03702368036988
 30
0.0
  0
VERTEX
  8
OUTLINE
  6
CONTINUOUS
 62
     3
 10
-40.490696530690684
 20
637.81361798119735
 30
0.0
  0
VERTEX
  8
OUTLINE
  6
CONTINUOUS
 62
     3
 10
-43.743874819818693
 20
638.47385835429452
 30
0.0
  0
VERTEX
  8
OUTLINE
  6
CONTINUOUS
 62
     3
 10
-47.019861732929215
 20
639.0165189479676
 30
0.0
  0
VERTEX
  8
OUTLINE
  6
CONTINUOUS
 62
     3
 10
-50.313934115547745
 20
639.44081584096659
 30
0.0
  0
VERTEX
  8
OUTLINE
  6
CONTINUOUS
 62
     3
 10
-53.62089577090746
 20
639.74636947063095
 30
0.0
  0
VERTEX
  8
OUTLINE
  6
CONTINUOUS
 62
     3
 10
-56.935533073314176
 20
639.93281517262164
 30
0.0
  0
VERTEX
  8
OUTLINE
  6
CONTINUOUS
 62
     3
 10
-60.252632397073739
 20
639.99978828260066
 30
0.0
  0
SEQEND
  8
OUTLINE
  6
CONTINUOUS
 62
     3
  0
POLYLINE
  8
OUTLINE
  6
CONTINUOUS
 62
     3
 66
     1
 10
0.0
 20
0.0
 30
0.0
  0
VERTEX
  8
OUTLINE
  6
CONTINUOUS
 62
     3
 10
-60.252632397073739
 20
639.99978828260066
 30
0.0
  0
VERTEX
  8
OUTLINE
  6
CONTINUOUS
 62
     3
 10
-60.299543122441634
 20
640.0017303440892
 30
0.0
  0
VERTEX
  8
OUTLINE
  6
CONTINUOUS
 62
     3
 10
-60.346209730818117
 20
640.00733650772952
 30
0.0
  0
VERTEX
  8
OUTLINE
  6
CONTINUOUS
 62
     3
 10
-60.392294867809866
 20
640.01657749523497
 30
0.0
  0
VERTEX
  8
OUTLINE
  6
CONTINUOUS
 62
     3
 10
-60.437496655514273
 20
640.0293958382357
 30
0.0
  0
VERTEX
  8
OUTLINE
  6
CONTINUOUS
 62
     3
 10
-60.481548692308003
 20
640.04570587844648
 30
0.0
  0
VERTEX
  8
OUTLINE
  6
CONTINUOUS
 62
     3
 10
-60.524188854768312
 20
640.06541414800847
 30
0.0
  0
VERTEX
  8
OUTLINE
  6
CONTINUOUS
 62
     3
 10
-60.565165962435934
 20
640.08840084358906
 30
0.0
  0
VERTEX
  8
OUTLINE
  6
CONTINUOUS
 62
     3
 10
-60.604231350810991
 20
640.114537620286
 30
0.0
  0
VERTEX
  8
OUTLINE
  6
CONTINUOUS
 62
     3
 10
-60.641131301163675
 20
640.14365110508311
 30
0.0
  0
VERTEX
  8
OUTLINE
  6
CONTINUOUS
 62
     3
 10
-60.675607040573603
 20
640.17552289720027
 30
0.0
  0
SEQEND
  8
OUTLINE
  6
CONTINUOUS
 62
     3
  0
POLYLINE
  8
OUTLINE
  6
CONTINUOUS
 62
     3
 66
     1
 10
0.0
 20
0.0
 30
0.0
  0
VERTEX
  8
OUTLINE
  6
CONTINUOUS
 62
     3
 10
-111.703116885772
 20
3.006045552000387
 30
0.0
  0
VERTEX
  8
OUTLINE
  6
CONTINUOUS
 62
     3
 10
-111.68229238229581
 20
3.0054708324524904
 30
0.0
  0
VERTEX
  8
OUTLINE
  6
CONTINUOUS
 62
     3
 10
-111.66146531792481
 20
3.0049798045692317
 30
0.0
  0
VERTEX
  8
OUTLINE
  6
CONTINUOUS
 62
     3
 10
-111.64063619683967
 20
3.004572443378553
 30
0.0
  0
VERTEX
  8
OUTLINE
  6
CONTINUOUS
 62
     3
 10
-111.61980552322116
 20
3.0042487239083941
 30
0.0
  0
VERTEX
  8
OUTLINE
  6
CONTINUOUS
 62
     3
 10
-111.59897380124997
 20
3.0040086211866983
 30
0.0
  0
VERTEX
  8
OUTLINE
  6
CONTINUOUS
 62
     3
 10
-111.57814153510682
 20
3.0038521102414055
 30
0.0
  0
VERTEX
  8
OUTLINE
  6
CONTINUOUS
 62
     3
 10
-111.5573092289724
 20
3.0037791661004571
 30
0.0
  0
SEQEND
  8
OUTLINE
  6
CONTINUOUS
 62
     3
  0
POLYLINE
  8
OUTLINE
  6
CONTINUOUS
 62
     3
 66
     1
 10
0.0
 20
0.0
 30
0.0
  0
VERTEX
  8
OUTLINE
  6
CONTINUOUS
 62
     3
 10
-111.5573092289724
 20
3.0037791661004571
 30
0.0
  0
VERTEX
  8
OUTLINE
  6
CONTINUOUS
 62
     3
 10
-111.55458760884508
 20
3.003775806886388
 30
0.0
  0
VERTEX
  8
OUTLINE
  6
CONTINUOUS
 62
     3
 10
-111.55186598639817
 20
3.0037738733887034
 30
0.0
  0
VERTEX
  8
OUTLINE
  6
CONTINUOUS
 62
     3
 10
-111.54914436275172
 20
3.0037733655546619
 30
0.0
  0
VERTEX
  8
OUTLINE
  6
CONTINUOUS
 62
     3
 10
-111.54642273902584
 20
3.0037742833315253
 30
0.0
  0
VERTEX
  8
OUTLINE
  6
CONTINUOUS
 62
     3
 10
-111.54370111634053
 20
3.0037766266665535
 30
0.0
  0
VERTEX
  8
OUTLINE
  6
CONTINUOUS
 62
     3
 10
-111.54097949581592
 20
3.003780395507007
 30
0.0
  0
VERTEX
  8
OUTLINE
  6
CONTINUOUS
 62
     3
 10
-111.538257878572
 20
3.0037855898001449
 30
0.0
  0
SEQEND
  8
OUTLINE
  6
CONTINUOUS
 62
     3
  0
POLYLINE
  8
OUTLINE
  6
CONTINUOUS
 62
     3
 66
     1
 10
0.0
 20
0.0
 30
0.0
  0
VERTEX
  8
OUTLINE
  6
CONTINUOUS
 62
     3
 10
-239.53072513997361
 20
3.0000000000006821
 30
0.0
  0
VERTEX
  8
OUTLINE
  6
CONTINUOUS
 62
     3
 10
-239.52010366993952
 20
3.0000951083150875
 30
0.0
  0
VERTEX
  8
OUTLINE
  6
CONTINUOUS
 62
     3
 10
-239.50948432391868
 20
3.0003801609846552
 30
0.0
  0
VERTEX
  8
OUTLINE
  6
CONTINUOUS
 62
     3
 10
-239.49887092066902
 20
3.0008547495989184
 30
0.0
  0
VERTEX
  8
OUTLINE
  6
CONTINUOUS
 62
     3
 10
-239.48826727894837
 20
3.0015184657472864
 30
0.0
  0
VERTEX
  8
OUTLINE
  6
CONTINUOUS
 62
     3
 10
-239.47767717665525
 20
3.0023707337316972
 30
0.0
  0
VERTEX
  8
OUTLINE
  6
CONTINUOUS
 62
     3
 10
-239.46710423260691
 20
3.0034103265375887
 30
0.0
  0
VERTEX
  8
OUTLINE
  6
CONTINUOUS
 62
     3
 10
-239.45655202691046
 20
3.0046358586614308
 30
0.0
  0
VERTEX
  8
OUTLINE
  6
CONTINUOUS
 62
     3
 10
-239.4460241396728
 20
3.0060459445996912
 30
0.0
  0
SEQEND
  8
OUTLINE
  6
CONTINUOUS
 62
     3
  0
POLYLINE
  8
OUTLINE
  6
CONTINUOUS
 62
     3
 66
     1
 10
0.0
 20
0.0
 30
0.0
  0
VERTEX
  8
OUTLINE
  6
CONTINUOUS
 62
     3
 10
-111.5568542248734
 20
3.0000000000006821
 30
0.0
  0
VERTEX
  8
OUTLINE
  6
CONTINUOUS
 62
     3
 10
-111.56905122389959
 20
3.0000420223226802
 30
0.0
  0
VERTEX
  8
OUTLINE
  6
CONTINUOUS
 62
     3
 10
-111.58124786108316
 20
3.0001680745110342
 30
0.0
  0
VERTEX
  8
OUTLINE
  6
CONTINUOUS
 62
     3
 10
-111.59344348520915
 20
3.0003781343992766
 30
0.0
  0
VERTEX
  8
OUTLINE
  6
CONTINUOUS
 62
     3
 10
-111.60563744506268
 20
3.0006721798209464
 30
0.0
  0
VERTEX
  8
OUTLINE
  6
CONTINUOUS
 62
     3
 10
-111.61782909021207
 20
3.0010501796486229
 30
0.0
  0
VERTEX
  8
OUTLINE
  6
CONTINUOUS
 62
     3
 10
-111.63001777334958
 20
3.0015120670184898
 30
0.0
  0
VERTEX
  8
OUTLINE
  6
CONTINUOUS
 62
     3
 10
-111.64220284794588
 20
3.0020577661593988
 30
0.0
  0
VERTEX
  8
OUTLINE
  6
CONTINUOUS
 62
     3
 10
-111.65438366747181
 20
3.0026872013002039
 30
0.0
  0
SEQEND
  8
OUTLINE
  6
CONTINUOUS
 62
     3
  0
POLYLINE
  8
OUTLINE
  6
CONTINUOUS
 62
     3
 66
     1
 10
0.0
 20
0.0
 30
0.0
  0
VERTEX
  8
OUTLINE
  6
CONTINUOUS
 62
     3
 10
-111.65438366747181
 20
3.0026872013002039
 30
0.0
  0
VERTEX
  8
OUTLINE
  6
CONTINUOUS
 62
     3
 10
-111.66135080231906
 20
3.0030849643411428
 30
0.0
  0
VERTEX
  8
OUTLINE
  6
CONTINUOUS
 62
     3
 10
-111.66831645457673
 20
3.0035101034579257
 30
0.0
  0
VERTEX
  8
OUTLINE
  6
CONTINUOUS
 62
     3
 10
-111.67528046449476
 20
3.0039625932740068
 30
0.0
  0
VERTEX
  8
OUTLINE
  6
CONTINUOUS
 62
     3
 10
-111.68224267232327
 20
3.00444240841284
 30
0.0
  0
VERTEX
  8
OUTLINE
  6
CONTINUOUS
 62
     3
 10
-111.68920291831229
 20
3.0049495234978787
 30
0.0
  0
VERTEX
  8
OUTLINE
  6
CONTINUOUS
 62
     3
 10
-111.69616104271184
 20
3.0054839131525761
 30
0.0
  0
VERTEX
  8
OUTLINE
  6
CONTINUOUS
 62
     3
 10
-111.703116885772
 20
3.006045552000387
 30
0.0
  0
SEQEND
  8
OUTLINE
  6
CONTINUOUS
 62
     3
  0
POLYLINE
  8
OUTLINE
  6
CONTINUOUS
 62
     3
 66
     1
 10
0.0
 20
0.0
 30
0.0
  0
VERTEX
  8
OUTLINE
  6
CONTINUOUS
 62
     3
 10
-239.4460465968728
 20
3.0060459445996912
 30
0.0
  0
VERTEX
  8
OUTLINE
  6
CONTINUOUS
 62
     3
 10
-239.45812178617606
 20
3.0062612171216267
 30
0.0
  0
VERTEX
  8
OUTLINE
  6
CONTINUOUS
 62
     3
 10
-239.47019696892309
 20
3.0064768578836341
 30
0.0
  0
VERTEX
  8
OUTLINE
  6
CONTINUOUS
 62
     3
 10
-239.48227214508688
 20
3.0066928674401483
 30
0.0
  0
VERTEX
  8
OUTLINE
  6
CONTINUOUS
 62
     3
 10
-239.49434731464061
 20
3.0069092463456113
 30
0.0
  0
VERTEX
  8
OUTLINE
  6
CONTINUOUS
 62
     3
 10
-239.50642247755729
 20
3.00712599515446
 30
0.0
  0
VERTEX
  8
OUTLINE
  6
CONTINUOUS
 62
     3
 10
-239.51849763381011
 20
3.0073431144211353
 30
0.0
  0
VERTEX
  8
OUTLINE
  6
CONTINUOUS
 62
     3
 10
-239.53057278337201
 20
3.0075606047000738
 30
0.0
  0
SEQEND
  8
OUTLINE
  6
CONTINUOUS
 62
     3
  0
CIRCLE
  8
FIX
  6
CONTINUOUS
 62
    11
 10
-24.29999997527193
 20
0.0
 30
0.0
 40
3.0
  0
CIRCLE
  8
ARRANGE
  6
CONTINUOUS
 62
     1
 10
0.0
 20
0.0
 30
0.0
 40
15.0
  0
LINE
  8
BASIS
  6
CENTER
 62
     6
 10
-24.29999997527193
 20
-9.2315979003897155
 30
0.0
 11
-24.29999997527193
 21
10.20184326171897
 31
0.0
  0
CIRCLE
  8
FIX
  6
CONTINUOUS
 62
    11
 10
-336.79999997527187
 20
0.0
 30
0.0
 40
3.0
  0
LINE
  8
BASIS
  6
CENTER
 62
     6
 10
-336.79999997527187
 20
-9.2315979003897155
 30
0.0
 11
-336.79999997527187
 21
10.20184326171897
 31
0.0
  0
TEXT
  8
NOTE
  6
CONTINUOUS
 62
     4
 10
44.9468115032073
 20
-144.33559733686141
 30
0.0
 40
30.0
  1
RG
 41
1.0
  0
TEXT
  8
NOTE
  6
CONTINUOUS
 62
     4
 10
-417.51710503738963
 20
315.08166281529128
 30
0.0
 40
30.0
  1
RL
 41
1.0
  0
LINE
  8
NOTE
  6
CONTINUOUS
 62
     4
 10
-353.21196052855657
 20
305.14472258453787
 30
0.0
 11
-431.37063600681762
 21
305.14472258453787
 31
0.0
  0
LINE
  8
NOTE
  6
CONTINUOUS
 62
     4
 10
-177.18600670323119
 20
152.92707670821301
 30
0.0
 11
-353.21196052855657
 21
305.14472258453787
 31
0.0
  0
LINE
  8
NOTE
  6
CONTINUOUS
 62
     4
 10
28.583744883523199
 20
-151.487956818665
 30
0.0
 11
109.4900468034111
 21
-151.487956818665
 31
0.0
  0
LINE
  8
NOTE
  6
CONTINUOUS
 62
     4
 10
-133.79348294237391
 20
104.407043821144
 30
0.0
 11
28.583744883523199
 21
-151.487956818665
 31
0.0
  0
LINE
  8
OUTLINE
  6
CONTINUOUS
 62
     3
 10
-332.39999997527372
 20
378.19999999997179
 30
0.0
 11
-332.39999997527372
 21
580.28647456190015
 31
0.0
  0
TEXT
  8
NOTE
  6
CONTINUOUS
 62
     4
 10
18.755886142068452
 20
-231.66242607340729
 30
0.0
 40
40.0
  1
Unit : mm
 41
0.7
  0
ENDSEC
  0
EOF
