  0
SECTION
  2
HEADER
  9
$ACADVER
  1
AC1009
  9
$DWGCODEPAGE
  3
dos932
  9
$INSBASE
 10
0.0
 20
0.0
 30
0.0
  9
$EXTMIN
 10
-49.947121512017468
 20
-15.12630841911232
 30
-0.0000000000112498
  9
$EXTMAX
 10
351.62471470083079
 20
1200.1099094158201
 30
0.0000000000002956
  9
$LIMMIN
 10
0.0000014455781638
 20
-0.0000031812703583
  9
$LIMMAX
 10
5940.0000014455791
 20
4199.9999968187294
  9
$ORTHOMODE
 70
     0
  9
$REGENMODE
 70
     1
  9
$FILLMODE
 70
     1
  9
$QTEXTMODE
 70
     0
  9
$MIRRTEXT
 70
     1
  9
$LTSCALE
 40
10.0
  9
$ATTMODE
 70
     1
  9
$TEXTSIZE
 40
2.5
  9
$TRACEWID
 40
1.0
  9
$TEXTSTYLE
  7
STYLE1
  9
$CLAYER
  8
SIZE
  9
$CELTYPE
  6
ByLayer
  9
$CECOLOR
 62
    30
  9
$DIMSCALE
 40
10.0
  9
$DIMASZ
 40
1.0
  9
$DIMEXO
 40
0.0
  9
$DIMDLI
 40
12.0
  9
$DIMRND
 40
0.0
  9
$DIMDLE
 40
0.0
  9
$DIMEXE
 40
2.0
  9
$DIMTP
 40
0.1
  9
$DIMTM
 40
0.1
  9
$DIMTXT
 40
4.0
  9
$DIMCEN
 40
0.0
  9
$DIMTSZ
 40
0.0
  9
$DIMTOL
 70
     0
  9
$DIMLIM
 70
     0
  9
$DIMTIH
 70
     0
  9
$DIMTOH
 70
     0
  9
$DIMSE1
 70
     0
  9
$DIMSE2
 70
     0
  9
$DIMTAD
 70
     3
  9
$DIMZIN
 70
     8
  9
$DIMBLK
  1

  9
$DIMASO
 70
     1
  9
$DIMSHO
 70
     1
  9
$DIMPOST
  1

  9
$DIMAPOST
  1
"
  9
$DIMALT
 70
     0
  9
$DIMALTD
 70
     2
  9
$DIMALTF
 40
0.0393701
  9
$DIMLFAC
 40
1.0
  9
$DIMTOFL
 70
     1
  9
$DIMTVP
 40
0.0
  9
$DIMTIX
 70
     0
  9
$DIMSOXD
 70
     0
  9
$DIMSAH
 70
     0
  9
$DIMBLK1
  1

  9
$DIMBLK2
  1

  9
$DIMSTYLE
  2
MHIJIS
  9
$DIMCLRD
 70
     3
  9
$DIMCLRE
 70
     3
  9
$DIMCLRT
 70
     3
  9
$DIMTFAC
 40
0.71
  9
$DIMGAP
 40
1.0
  9
$LUNITS
 70
     2
  9
$LUPREC
 70
     4
  9
$SKETCHINC
 40
1.0
  9
$FILLETRAD
 40
0.0
  9
$AUNITS
 70
     0
  9
$AUPREC
 70
     0
  9
$MENU
  1
.
  9
$ELEVATION
 40
0.0
  9
$PELEVATION
 40
0.0
  9
$THICKNESS
 40
0.0
  9
$LIMCHECK
 70
     0
  9
$CHAMFERA
 40
0.0
  9
$CHAMFERB
 40
0.0
  9
$SKPOLY
 70
     0
  9
$TDCREATE
 40
2454511.500316863
  9
$TDUPDATE
 40
2457701.648679167
  9
$TDINDWG
 40
0.2551614815
  9
$TDUSRTIMER
 40
0.2551614815
  9
$USRTIMER
 70
     1
  9
$ANGBASE
 50
0.0
  9
$ANGDIR
 70
     0
  9
$PDMODE
 70
     0
  9
$PDSIZE
 40
0.0
  9
$PLINEWID
 40
0.0
  9
$SPLFRAME
 70
     0
  9
$SPLINETYPE
 70
     6
  9
$SPLINESEGS
 70
     8
  9
$SURFTAB1
 70
     6
  9
$SURFTAB2
 70
     6
  9
$SURFTYPE
 70
     6
  9
$SURFU
 70
     6
  9
$SURFV
 70
     6
  9
$UCSNAME
  2

  9
$UCSORG
 10
0.0
 20
0.0
 30
0.0
  9
$UCSXDIR
 10
1.0
 20
0.0
 30
0.0
  9
$UCSYDIR
 10
0.0
 20
1.0
 30
0.0
  9
$PUCSNAME
  2

  9
$PUCSORG
 10
0.0
 20
0.0
 30
0.0
  9
$PUCSXDIR
 10
1.0
 20
0.0
 30
0.0
  9
$PUCSYDIR
 10
0.0
 20
1.0
 30
0.0
  9
$USERI1
 70
     0
  9
$USERI2
 70
     0
  9
$USERI3
 70
     0
  9
$USERI4
 70
     0
  9
$USERI5
 70
     0
  9
$USERR1
 40
0.0
  9
$USERR2
 40
0.0
  9
$USERR3
 40
0.0
  9
$USERR4
 40
0.0
  9
$USERR5
 40
0.0
  9
$WORLDVIEW
 70
     1
  9
$SHADEDGE
 70
     3
  9
$SHADEDIF
 70
    70
  9
$TILEMODE
 70
     1
  9
$MAXACTVP
 70
    64
  9
$PINSBASE
 10
0.0
 20
0.0
 30
0.0
  9
$PLIMCHECK
 70
     0
  9
$PEXTMIN
 10
0.0
 20
0.0
 30
0.0
  9
$PEXTMAX
 10
0.0
 20
0.0
 30
0.0
  9
$PLIMMIN
 10
0.0
 20
0.0
  9
$PLIMMAX
 10
12.0
 20
9.0
  9
$UNITMODE
 70
     0
  9
$VISRETAIN
 70
     1
  9
$PLINEGEN
 70
     0
  9
$PSLTSCALE
 70
     1
  9
$TREEDEPTH
 70
  3020
  9
$ATTDIA
 70
     0
  9
$ATTREQ
 70
     1
  9
$BLIPMODE
 70
     1
  9
$COORDS
 70
     1
  9
$DRAGMODE
 70
     2
  9
$OSMODE
 70
     0
  9
$HANDLING
 70
     0
  9
$HANDSEED
  5
2C27
  0
ENDSEC
  0
SECTION
  2
TABLES
  0
TABLE
  2
LTYPE
 70
     4
  0
LTYPE
  2
CONTINUOUS
 70
     0
  3
Solid line
 72
    65
 73
     0
 40
0.0
  0
LTYPE
  2
AM_ISO02W050
 70
     0
  3
__ __ __ __ __ __ __ __ __ __ __ __ __ __ __
 72
    65
 73
     2
 40
7.5
 49
6.0
 49
-1.5
  0
LTYPE
  2
AM_ISO08W050
 70
     0
  3
____ . ____ . ____ . ____ . ____ . ____ . ____
 72
    65
 73
     4
 40
18.0
 49
12.0
 49
-1.5
 49
3.0
 49
-1.5
  0
LTYPE
  2
CENTER
 70
     0
  3
__ . __
 72
    65
 73
     4
 40
7.0
 49
4.0
 49
-1.0
 49
1.0
 49
-1.0
  0
ENDTAB
  0
TABLE
  2
LAYER
 70
     7
  0
LAYER
  2
SERVICESPACE
 70
     0
 62
     2
  6
AM_ISO02W050
  0
LAYER
  2
DETAIL
 70
     0
 62
     5
  6
CONTINUOUS
  0
LAYER
  2
OUTLINE
 70
     0
 62
     3
  6
CONTINUOUS
  0
LAYER
  2
ARRANGE
 70
     0
 62
     1
  6
CONTINUOUS
  0
LAYER
  2
FIX
 70
     0
 62
    11
  6
CONTINUOUS
  0
LAYER
  2
BASIS
 70
     0
 62
     6
  6
AM_ISO08W050
  0
LAYER
  2
SIZE
 70
    64
 62
    30
  6
CONTINUOUS
  0
ENDTAB
  0
TABLE
  2
STYLE
 70
     2
  0
STYLE
  2
STANDARD
 70
     0
 40
0.0
 41
0.7
 50
0.0
 71
     0
 42
2.5
  3
simplex.shx
  4
bigfont.shx
  0
STYLE
  2
STYLE1
 70
     0
 40
0.0
 41
1.0
 50
0.0
 71
     0
 42
2.5
  3
monotxt.shx
  4
bigfont.shx
  0
ENDTAB
  0
TABLE
  2
APPID
 70
    50
  0
APPID
  2
ACAD
 70
     0
  0
APPID
  2
MCAD_NO_VIS
 70
     0
  0
APPID
  2
ACAD_TEMP_GRAPHIC
 70
     0
  0
APPID
  2
ACATTRIBSERVICES
 70
     0
  0
APPID
  2
AD_DRAW
 70
     0
  0
APPID
  2
DESIGNERASSEMBLIES
 70
     0
  0
APPID
  2
ACADM_DIM_EDIT
 70
     0
  0
APPID
  2
AMDT_DM_ADJ
 70
     0
  0
APPID
  2
RAK
 70
     0
  0
APPID
  2
ACAD_DSTYLE_DIMARC_LENGTH_SYMBO
 70
     0
  0
APPID
  2
ACAD_DSTYLE_DIMJOGGED_JOGANGLE_
 70
     0
  0
APPID
  2
GENIUS_GENTRA_14
 70
     0
  0
APPID
  2
GENIUS_GENOENT_13
 70
     0
  0
APPID
  2
GENIUS_GENOLIS_13
 70
     0
  0
APPID
  2
GENIUS_GENOBJ-N-TIT_13
 70
     0
  0
APPID
  2
GENIUS_GENODEF_13
 70
     0
  0
APPID
  2
GENIUS_GENTITLE_13
 70
     0
  0
APPID
  2
GENIUS_GENOREF_13
 70
     0
  0
APPID
  2
GENIUS_GENSCREG_15
 70
     0
  0
APPID
  2
GENIUS_GENOBJ-N-SDF_13
 70
     0
  0
APPID
  2
ACAECLAYERSTANDARD
 70
     0
  0
APPID
  2
ACAD_DSTYLE_DIMEXT_LENGTH
 70
     0
  0
APPID
  2
ACAD_DSTYLE_DIMEXT_ENABLED
 70
     0
  0
APPID
  2
ACAD_PSEXT
 70
     0
  0
APPID
  2
GENIUS_GENOBJ-N-CEN_13
 70
     0
  0
APPID
  2
DCO15
 70
     0
  0
APPID
  2
ACAD_NAV_VCDISPLAY
 70
     0
  0
APPID
  2
ACADANNOPO
 70
     0
  0
APPID
  2
ACADANNOTATIVE
 70
     0
  0
APPID
  2
ACAD_DSTYLE_DIMJAG
 70
     0
  0
APPID
  2
ACAD_DSTYLE_DIMTALN
 70
     0
  0
APPID
  2
ACAD_MLEADERVER
 70
     0
  0
APPID
  2
ACAD_DSTYLE_DIMBREAK
 70
     0
  0
APPID
  2
ACAD_EXEMPT_FROM_CAD_STANDARDS
 70
     0
  0
APPID
  2
GENIUS_GENREC_14
 70
     0
  0
APPID
  2
GENIUS_GENOBJ-N-REC_13
 70
     0
  0
APPID
  2
GENIUS_GENDIM_13
 70
     0
  0
APPID
  2
GENIUS_GENDTOL_13
 70
     0
  0
APPID
  2
GENIUS_GE3DTOL_13
 70
     0
  0
APPID
  2
ASURF_PCURVE_APPNAME
 70
     0
  0
APPID
  2
AMG_3D2D_5_0
 70
     0
  0
APPID
  2
GENIUS_GENOBJ-N-HTC_13
 70
     0
  0
APPID
  2
GENIUS_GENHATCH_13
 70
     0
  0
APPID
  2
GRADIENTCOLOR1ACI
 70
     0
  0
APPID
  2
GRADIENTCOLOR2ACI
 70
     0
  0
APPID
  2
ACADSTRINGINFO
 70
     0
  0
APPID
  2
ACCMTRANSPARENCY
 70
     0
  0
APPID
  2
ACAD_DSTYLE_DIM_LINETYPE
 70
     0
  0
APPID
  2
ACAD_DSTYLE_DIM_EXT1_LINETYPE
 70
     0
  0
APPID
  2
ACAD_DSTYLE_DIM_EXT2_LINETYPE
 70
     0
  0
ENDTAB
  0
TABLE
  2
DIMSTYLE
 70
     1
  0
DIMSTYLE
  2
MHIJIS
 70
     0
  3

  4
"
  5
_OPEN30
  6

  7

 40
1.0
 41
3.149999999999999
 42
0.0
 43
12.0
 44
2.0
 45
0.0
 46
0.0
 47
0.1
 48
0.1
140
4.0
141
0.0
142
0.0
143
0.0393701
144
1.0
145
0.0
146
0.71
147
1.0
 71
     0
 72
     0
 73
     0
 74
     0
 75
     0
 76
     0
 77
     3
 78
     8
170
     0
171
     2
172
     1
173
     0
174
     0
175
     0
176
     3
177
     3
178
     3
  0
ENDTAB
  0
TABLE
  2
VIEW
 70
     6
  0
VIEW
  2
AM_VIEW1
 70
     0
 40
2100.0
 10
1795.317920520723
 20
3149.9999968187299
 41
3590.6358381502891
 11
0.0
 21
0.0
 31
1.0
 12
0.0
 22
0.0
 32
0.0
 42
50.0
 43
0.0
 44
0.0
 50
0.0
 71
     0
  0
VIEW
  2
AM_VIEW2
 70
     0
 40
2100.0
 10
4144.6820823704329
 20
3149.9999968187299
 41
3590.6358381502891
 11
0.0
 21
0.0
 31
1.0
 12
0.0
 22
0.0
 32
0.0
 42
50.0
 43
0.0
 44
0.0
 50
0.0
 71
     0
  0
VIEW
  2
AM_VIEW3
 70
     0
 40
2100.0
 10
1795.317920520723
 20
1049.999996818729
 41
3590.6358381502891
 11
0.0
 21
0.0
 31
1.0
 12
0.0
 22
0.0
 32
0.0
 42
50.0
 43
0.0
 44
0.0
 50
0.0
 71
     0
  0
VIEW
  2
AM_VIEW4
 70
     0
 40
2100.0
 10
4144.6820823704329
 20
1049.999996818729
 41
3590.6358381502891
 11
0.0
 21
0.0
 31
1.0
 12
0.0
 22
0.0
 32
0.0
 42
50.0
 43
0.0
 44
0.0
 50
0.0
 71
     0
  0
VIEW
  2
AM_VIEW5
 70
     0
 40
2100.0
 10
2970.0000014455782
 20
2099.999996818729
 41
3590.6358381502891
 11
0.0
 21
0.0
 31
1.0
 12
0.0
 22
0.0
 32
0.0
 42
50.0
 43
0.0
 44
0.0
 50
0.0
 71
     0
  0
VIEW
  2
AM_VIEW6
 70
     0
 40
4199.9580000000014
 10
2970.0000014455782
 20
2099.999996818729
 41
7181.1998635838154
 11
0.0
 21
0.0
 31
1.0
 12
0.0
 22
0.0
 32
0.0
 42
50.0
 43
0.0
 44
0.0
 50
0.0
 71
     0
  0
ENDTAB
  0
TABLE
  2
UCS
 70
     0
  0
ENDTAB
  0
TABLE
  2
VPORT
 70
     1
  0
VPORT
  2
*ACTIVE
 70
     0
 10
0.0
 20
0.0
 11
1.0
 21
1.0
 12
150.8387965944066
 22
592.49180049835365
 13
0.0
 23
0.0
 14
25.0
 24
25.0
 15
100.0
 25
100.0
 16
0.0
 26
0.0
 36
1.0
 17
0.0
 27
0.0
 37
0.0
 40
1226.1351973670839
 41
1.869760479041916
 42
50.0
 43
0.0
 44
0.0
 50
0.0
 51
0.0
 71
     0
 72
   100
 73
     1
 74
     3
 75
     0
 76
     0
 77
     0
 78
     0
  0
ENDTAB
  0
ENDSEC
  0
SECTION
  2
BLOCKS
  0
BLOCK
  8
SIZE
  2
_OPEN30
 70
     0
 10
0.0
 20
0.0
 30
0.0
  3
_OPEN30
  1
_Open30
  0
LINE
  8
SIZE
  6
ByBlock
 62
    30
 10
-1.0
 20
0.26794919
 30
0.0
 11
0.0
 21
0.0
 31
0.0
  0
LINE
  8
SIZE
  6
ByBlock
 62
    30
 10
0.0
 20
0.0
 30
0.0
 11
-1.0
 21
-0.26794919
 31
0.0
  0
LINE
  8
SIZE
  6
ByBlock
 62
    30
 10
0.0
 20
0.0
 30
0.0
 11
-1.0
 21
0.0
 31
0.0
  0
ENDBLK
  8
SIZE
  0
ENDSEC
  0
SECTION
  2
ENTITIES
  0
LINE
  8
DETAIL
  6
CONTINUOUS
 62
     5
 10
0.0
 20
0.0
 30
0.0
 11
94.699999975271112
 21
0.0
 31
0.0
  0
LINE
  8
DETAIL
  6
CONTINUOUS
 62
     5
 10
256.89999997527138
 20
0.0
 30
0.0
 11
351.59999995054483
 21
0.0
 31
0.0
  0
LINE
  8
DETAIL
  6
CONTINUOUS
 62
     5
 10
62.148529088171919
 20
641.64852911290041
 30
0.0
 11
60.675523762072309
 21
640.17552378670075
 31
0.0
  0
LINE
  8
DETAIL
  6
CONTINUOUS
 62
     5
 10
294.84314572577199
 20
8.0000000000006821
 30
0.0
 11
49.756854224772262
 21
8.0000000000006821
 31
0.0
  0
LINE
  8
DETAIL
  6
CONTINUOUS
 62
     5
 10
30.499999975272662
 20
12.400000000000089
 30
0.0
 11
320.39999997527281
 21
12.400000000000089
 31
0.0
  0
LINE
  8
DETAIL
  6
CONTINUOUS
 62
     5
 10
43.774516575672351
 20
11.828427124700051
 30
0.0
 11
46.079898962570951
 21
9.5230447378003191
 31
0.0
  0
LINE
  8
DETAIL
  6
CONTINUOUS
 62
     5
 10
330.4174530462729
 20
44.513601591900162
 30
0.0
 11
320.39999997527281
 21
44.426180603300047
 31
0.0
  0
LINE
  8
DETAIL
  6
CONTINUOUS
 62
     5
 10
52.499999975273113
 20
35.0
 30
0.0
 11
144.0999999752716
 21
35.0
 31
0.0
  0
LINE
  8
DETAIL
  6
CONTINUOUS
 62
     5
 10
160.09999997527299
 20
35.0
 30
0.0
 11
237.89999997527281
 21
35.0
 31
0.0
  0
LINE
  8
DETAIL
  6
CONTINUOUS
 62
     5
 10
142.1485291750719
 20
641.64852919980035
 30
0.0
 11
140.67573742367131
 21
640.17573744840115
 31
0.0
  0
LINE
  8
DETAIL
  6
CONTINUOUS
 62
     5
 10
237.89999997527281
 20
77.000000000000455
 30
0.0
 11
160.09999997527299
 21
77.000000000000455
 31
0.0
  0
LINE
  8
DETAIL
  6
CONTINUOUS
 62
     5
 10
144.0999999752716
 20
77.000000000000455
 30
0.0
 11
52.499999975273113
 21
77.000000000000455
 31
0.0
  0
LINE
  8
DETAIL
  6
CONTINUOUS
 62
     5
 10
52.499999975273113
 20
85.0
 30
0.0
 11
144.0999999752716
 21
85.0
 31
0.0
  0
LINE
  8
DETAIL
  6
CONTINUOUS
 62
     5
 10
160.09999997527299
 20
85.0
 30
0.0
 11
237.89999997527281
 21
85.0
 31
0.0
  0
LINE
  8
DETAIL
  6
CONTINUOUS
 62
     5
 10
91.460254013213671
 20
0.0
 30
0.0
 11
86.841451859572771
 21
8.0000000000006821
 31
0.0
  0
LINE
  8
DETAIL
  6
CONTINUOUS
 62
     5
 10
223.048529175071
 20
641.64852919980035
 30
0.0
 11
221.57573742367279
 21
640.17573744840115
 31
0.0
  0
LINE
  8
DETAIL
  6
CONTINUOUS
 62
     5
 10
237.89999997527281
 20
127.0000000000004
 30
0.0
 11
160.09999997527299
 21
127.0000000000004
 31
0.0
  0
LINE
  8
DETAIL
  6
CONTINUOUS
 62
     5
 10
144.0999999752716
 20
127.0000000000004
 30
0.0
 11
52.499999975273113
 21
127.0000000000004
 31
0.0
  0
LINE
  8
DETAIL
  6
CONTINUOUS
 62
     5
 10
52.499999975273113
 20
135.0
 30
0.0
 11
144.0999999752716
 21
135.0
 31
0.0
  0
LINE
  8
DETAIL
  6
CONTINUOUS
 62
     5
 10
160.09999997527299
 20
135.0
 30
0.0
 11
237.89999997527281
 21
135.0
 31
0.0
  0
LINE
  8
DETAIL
  6
CONTINUOUS
 62
     5
 10
30.499999975272662
 20
631.35430572810014
 30
0.0
 11
30.499999975272662
 21
12.400000000000089
 31
0.0
  0
LINE
  8
SERVICESPACE
  6
AM_ISO02W050
 62
     2
 10
-49.500000024727342
 20
1200.0
 30
0.0
 11
-49.500000024727342
 21
0.0
 31
0.0
  0
LINE
  8
DETAIL
  6
CONTINUOUS
 62
     5
 10
237.89999997527281
 20
177.0000000000004
 30
0.0
 11
160.09999997527299
 21
177.0000000000004
 31
0.0
  0
LINE
  8
DETAIL
  6
CONTINUOUS
 62
     5
 10
144.0999999752716
 20
177.0000000000004
 30
0.0
 11
52.499999975273113
 21
177.0000000000004
 31
0.0
  0
LINE
  8
DETAIL
  6
CONTINUOUS
 62
     5
 10
47.499999975273113
 20
599.99999999999977
 30
0.0
 11
47.499999975273113
 21
579.00000000000068
 31
0.0
  0
LINE
  8
DETAIL
  6
CONTINUOUS
 62
     5
 10
47.499999975273113
 20
507.00000000000063
 30
0.0
 11
47.499999975273113
 21
489.99999999999972
 31
0.0
  0
LINE
  8
DETAIL
  6
CONTINUOUS
 62
     5
 10
47.499999975273113
 20
472.00000000000063
 30
0.0
 11
47.499999975273113
 21
439.99999999999972
 31
0.0
  0
LINE
  8
DETAIL
  6
CONTINUOUS
 62
     5
 10
47.499999975273113
 20
422.00000000000063
 30
0.0
 11
47.499999975273113
 21
389.99999999999977
 31
0.0
  0
LINE
  8
DETAIL
  6
CONTINUOUS
 62
     5
 10
47.499999975273113
 20
372.00000000000068
 30
0.0
 11
47.499999975273113
 21
339.99999999999977
 31
0.0
  0
LINE
  8
DETAIL
  6
CONTINUOUS
 62
     5
 10
47.499999975273113
 20
322.00000000000068
 30
0.0
 11
47.499999975273113
 21
289.99999999999977
 31
0.0
  0
LINE
  8
DETAIL
  6
CONTINUOUS
 62
     5
 10
47.499999975273113
 20
272.00000000000051
 30
0.0
 11
47.499999975273113
 21
240.0
 31
0.0
  0
LINE
  8
DETAIL
  6
CONTINUOUS
 62
     5
 10
47.499999975273113
 20
222.00000000000051
 30
0.0
 11
47.499999975273113
 21
190.0
 31
0.0
  0
LINE
  8
DETAIL
  6
CONTINUOUS
 62
     5
 10
47.499999975273113
 20
172.0000000000004
 30
0.0
 11
47.499999975273113
 21
140.0
 31
0.0
  0
LINE
  8
DETAIL
  6
CONTINUOUS
 62
     5
 10
47.499999975273113
 20
122.0000000000004
 30
0.0
 11
47.499999975273113
 21
90.0
 31
0.0
  0
LINE
  8
DETAIL
  6
CONTINUOUS
 62
     5
 10
47.499999975273113
 20
72.000000000000455
 30
0.0
 11
47.499999975273113
 21
40.0
 31
0.0
  0
LINE
  8
DETAIL
  6
CONTINUOUS
 62
     5
 10
48.449999975271112
 20
535.65789946539985
 30
0.0
 11
48.449999975271112
 21
565.74210053460115
 31
0.0
  0
LINE
  8
DETAIL
  6
CONTINUOUS
 62
     5
 10
52.499999975273113
 20
185.0
 30
0.0
 11
144.0999999752716
 21
185.0
 31
0.0
  0
LINE
  8
DETAIL
  6
CONTINUOUS
 62
     5
 10
160.09999997527299
 20
185.0
 30
0.0
 11
237.89999997527281
 21
185.0
 31
0.0
  0
LINE
  8
DETAIL
  6
CONTINUOUS
 62
     5
 10
76.949999975272476
 20
520.45789946540003
 30
0.0
 11
76.949999975272476
 21
527.14210053460079
 31
0.0
  0
LINE
  8
DETAIL
  6
CONTINUOUS
 62
     5
 10
237.89999997527281
 20
227.0000000000004
 30
0.0
 11
160.09999997527299
 21
227.0000000000004
 31
0.0
  0
LINE
  8
DETAIL
  6
CONTINUOUS
 62
     5
 10
144.0999999752716
 20
227.0000000000004
 30
0.0
 11
52.499999975273113
 21
227.0000000000004
 31
0.0
  0
LINE
  8
DETAIL
  6
CONTINUOUS
 62
     5
 10
52.499999975273113
 20
235.0
 30
0.0
 11
144.0999999752716
 21
235.0
 31
0.0
  0
LINE
  8
DETAIL
  6
CONTINUOUS
 62
     5
 10
160.09999997527299
 20
235.0
 30
0.0
 11
237.89999997527281
 21
235.0
 31
0.0
  0
LINE
  8
DETAIL
  6
CONTINUOUS
 62
     5
 10
116.9499999752725
 20
520.45789946540003
 30
0.0
 11
116.9499999752725
 21
527.14210053460079
 31
0.0
  0
LINE
  8
DETAIL
  6
CONTINUOUS
 62
     5
 10
145.44999997527151
 20
535.65789946539985
 30
0.0
 11
145.44999997527151
 21
565.74210053460115
 31
0.0
  0
LINE
  8
DETAIL
  6
CONTINUOUS
 62
     5
 10
147.29999997527099
 20
489.99999999999972
 30
0.0
 11
147.29999997527099
 21
507.00000000000063
 31
0.0
  0
LINE
  8
DETAIL
  6
CONTINUOUS
 62
     5
 10
149.0999999752716
 20
40.0
 30
0.0
 11
149.0999999752716
 21
72.000000000000455
 31
0.0
  0
LINE
  8
DETAIL
  6
CONTINUOUS
 62
     5
 10
149.0999999752716
 20
90.0
 30
0.0
 11
149.0999999752716
 21
122.0000000000004
 31
0.0
  0
LINE
  8
DETAIL
  6
CONTINUOUS
 62
     5
 10
149.0999999752716
 20
140.0
 30
0.0
 11
149.0999999752716
 21
172.0000000000004
 31
0.0
  0
LINE
  8
DETAIL
  6
CONTINUOUS
 62
     5
 10
149.0999999752716
 20
190.0
 30
0.0
 11
149.0999999752716
 21
222.00000000000051
 31
0.0
  0
LINE
  8
DETAIL
  6
CONTINUOUS
 62
     5
 10
149.0999999752716
 20
240.0
 30
0.0
 11
149.0999999752716
 21
272.00000000000051
 31
0.0
  0
LINE
  8
DETAIL
  6
CONTINUOUS
 62
     5
 10
149.0999999752716
 20
289.99999999999977
 30
0.0
 11
149.0999999752716
 21
322.00000000000068
 31
0.0
  0
LINE
  8
DETAIL
  6
CONTINUOUS
 62
     5
 10
149.0999999752716
 20
339.99999999999977
 30
0.0
 11
149.0999999752716
 21
372.00000000000068
 31
0.0
  0
LINE
  8
DETAIL
  6
CONTINUOUS
 62
     5
 10
149.0999999752716
 20
389.99999999999977
 30
0.0
 11
149.0999999752716
 21
422.00000000000063
 31
0.0
  0
LINE
  8
DETAIL
  6
CONTINUOUS
 62
     5
 10
149.0999999752716
 20
439.99999999999972
 30
0.0
 11
149.0999999752716
 21
472.00000000000063
 31
0.0
  0
LINE
  8
DETAIL
  6
CONTINUOUS
 62
     5
 10
149.0999999752716
 20
579.00000000000068
 30
0.0
 11
149.0999999752716
 21
599.99999999999977
 31
0.0
  0
LINE
  8
DETAIL
  6
CONTINUOUS
 62
     5
 10
237.89999997527281
 20
277.0000000000004
 30
0.0
 11
160.09999997527299
 21
277.0000000000004
 31
0.0
  0
LINE
  8
DETAIL
  6
CONTINUOUS
 62
     5
 10
144.0999999752716
 20
277.0000000000004
 30
0.0
 11
52.499999975273113
 21
277.0000000000004
 31
0.0
  0
LINE
  8
DETAIL
  6
CONTINUOUS
 62
     5
 10
52.499999975273113
 20
284.99999999999977
 30
0.0
 11
144.0999999752716
 21
284.99999999999977
 31
0.0
  0
LINE
  8
DETAIL
  6
CONTINUOUS
 62
     5
 10
160.09999997527299
 20
284.99999999999977
 30
0.0
 11
237.89999997527281
 21
284.99999999999977
 31
0.0
  0
LINE
  8
DETAIL
  6
CONTINUOUS
 62
     5
 10
314.46025401316319
 20
0.0
 30
0.0
 11
307.301110675171
 21
12.400000000000089
 31
0.0
  0
LINE
  8
DETAIL
  6
CONTINUOUS
 62
     5
 10
155.09999997527299
 20
599.99999999999977
 30
0.0
 11
155.09999997527299
 21
579.00000000000068
 31
0.0
  0
LINE
  8
DETAIL
  6
CONTINUOUS
 62
     5
 10
155.09999997527299
 20
561.00000000000023
 30
0.0
 11
155.09999997527299
 21
539.99999999999966
 31
0.0
  0
LINE
  8
DETAIL
  6
CONTINUOUS
 62
     5
 10
155.09999997527299
 20
522.00000000000057
 30
0.0
 11
155.09999997527299
 21
489.99999999999972
 31
0.0
  0
LINE
  8
DETAIL
  6
CONTINUOUS
 62
     5
 10
155.09999997527299
 20
472.00000000000063
 30
0.0
 11
155.09999997527299
 21
439.99999999999972
 31
0.0
  0
LINE
  8
DETAIL
  6
CONTINUOUS
 62
     5
 10
155.09999997527299
 20
422.00000000000063
 30
0.0
 11
155.09999997527299
 21
389.99999999999977
 31
0.0
  0
LINE
  8
DETAIL
  6
CONTINUOUS
 62
     5
 10
155.09999997527299
 20
372.00000000000068
 30
0.0
 11
155.09999997527299
 21
339.99999999999977
 31
0.0
  0
LINE
  8
DETAIL
  6
CONTINUOUS
 62
     5
 10
155.09999997527299
 20
322.00000000000068
 30
0.0
 11
155.09999997527299
 21
289.99999999999977
 31
0.0
  0
LINE
  8
DETAIL
  6
CONTINUOUS
 62
     5
 10
155.09999997527299
 20
272.00000000000051
 30
0.0
 11
155.09999997527299
 21
240.0
 31
0.0
  0
LINE
  8
DETAIL
  6
CONTINUOUS
 62
     5
 10
155.09999997527299
 20
222.00000000000051
 30
0.0
 11
155.09999997527299
 21
190.0
 31
0.0
  0
LINE
  8
DETAIL
  6
CONTINUOUS
 62
     5
 10
155.09999997527299
 20
172.0000000000004
 30
0.0
 11
155.09999997527299
 21
140.0
 31
0.0
  0
LINE
  8
DETAIL
  6
CONTINUOUS
 62
     5
 10
155.09999997527299
 20
122.0000000000004
 30
0.0
 11
155.09999997527299
 21
90.0
 31
0.0
  0
LINE
  8
DETAIL
  6
CONTINUOUS
 62
     5
 10
155.09999997527299
 20
72.000000000000455
 30
0.0
 11
155.09999997527299
 21
40.0
 31
0.0
  0
LINE
  8
DETAIL
  6
CONTINUOUS
 62
     5
 10
237.89999997527281
 20
327.00000000000068
 30
0.0
 11
160.09999997527299
 21
327.00000000000068
 31
0.0
  0
LINE
  8
DETAIL
  6
CONTINUOUS
 62
     5
 10
144.0999999752716
 20
327.00000000000068
 30
0.0
 11
52.499999975273113
 21
327.00000000000068
 31
0.0
  0
LINE
  8
DETAIL
  6
CONTINUOUS
 62
     5
 10
52.499999975273113
 20
334.99999999999977
 30
0.0
 11
144.0999999752716
 21
334.99999999999977
 31
0.0
  0
LINE
  8
DETAIL
  6
CONTINUOUS
 62
     5
 10
160.09999997527299
 20
334.99999999999977
 30
0.0
 11
237.89999997527281
 21
334.99999999999977
 31
0.0
  0
LINE
  8
DETAIL
  6
CONTINUOUS
 62
     5
 10
43.897745353772272
 20
11.70519834660012
 30
0.0
 11
37.139745937367927
 21
0.0
 31
0.0
  0
LINE
  8
DETAIL
  6
CONTINUOUS
 62
     5
 10
242.89999997527269
 20
40.0
 30
0.0
 11
242.89999997527269
 21
72.000000000000455
 31
0.0
  0
LINE
  8
DETAIL
  6
CONTINUOUS
 62
     5
 10
242.89999997527269
 20
90.0
 30
0.0
 11
242.89999997527269
 21
122.0000000000004
 31
0.0
  0
LINE
  8
DETAIL
  6
CONTINUOUS
 62
     5
 10
242.89999997527269
 20
140.0
 30
0.0
 11
242.89999997527269
 21
172.0000000000004
 31
0.0
  0
LINE
  8
DETAIL
  6
CONTINUOUS
 62
     5
 10
242.89999997527269
 20
190.0
 30
0.0
 11
242.89999997527269
 21
222.00000000000051
 31
0.0
  0
LINE
  8
DETAIL
  6
CONTINUOUS
 62
     5
 10
242.89999997527269
 20
240.0
 30
0.0
 11
242.89999997527269
 21
272.00000000000051
 31
0.0
  0
LINE
  8
DETAIL
  6
CONTINUOUS
 62
     5
 10
242.89999997527269
 20
289.99999999999977
 30
0.0
 11
242.89999997527269
 21
322.00000000000068
 31
0.0
  0
LINE
  8
DETAIL
  6
CONTINUOUS
 62
     5
 10
242.89999997527269
 20
339.99999999999977
 30
0.0
 11
242.89999997527269
 21
372.00000000000068
 31
0.0
  0
LINE
  8
DETAIL
  6
CONTINUOUS
 62
     5
 10
242.89999997527269
 20
389.99999999999977
 30
0.0
 11
242.89999997527269
 21
422.00000000000063
 31
0.0
  0
LINE
  8
DETAIL
  6
CONTINUOUS
 62
     5
 10
242.89999997527269
 20
439.99999999999972
 30
0.0
 11
242.89999997527269
 21
472.00000000000063
 31
0.0
  0
LINE
  8
DETAIL
  6
CONTINUOUS
 62
     5
 10
242.89999997527269
 20
489.99999999999972
 30
0.0
 11
242.89999997527269
 21
522.00000000000057
 31
0.0
  0
LINE
  8
DETAIL
  6
CONTINUOUS
 62
     5
 10
242.89999997527269
 20
539.99999999999966
 30
0.0
 11
242.89999997527269
 21
561.00000000000023
 31
0.0
  0
LINE
  8
DETAIL
  6
CONTINUOUS
 62
     5
 10
242.89999997527269
 20
579.00000000000068
 30
0.0
 11
242.89999997527269
 21
599.99999999999977
 31
0.0
  0
LINE
  8
DETAIL
  6
CONTINUOUS
 62
     5
 10
237.89999997527281
 20
377.00000000000068
 30
0.0
 11
160.09999997527299
 21
377.00000000000068
 31
0.0
  0
LINE
  8
DETAIL
  6
CONTINUOUS
 62
     5
 10
144.0999999752716
 20
377.00000000000068
 30
0.0
 11
52.499999975273113
 21
377.00000000000068
 31
0.0
  0
LINE
  8
DETAIL
  6
CONTINUOUS
 62
     5
 10
52.499999975273113
 20
384.99999999999977
 30
0.0
 11
144.0999999752716
 21
384.99999999999977
 31
0.0
  0
LINE
  8
DETAIL
  6
CONTINUOUS
 62
     5
 10
160.09999997527299
 20
384.99999999999977
 30
0.0
 11
237.89999997527281
 21
384.99999999999977
 31
0.0
  0
LINE
  8
DETAIL
  6
CONTINUOUS
 62
     5
 10
237.89999997527281
 20
427.00000000000063
 30
0.0
 11
160.09999997527299
 21
427.00000000000063
 31
0.0
  0
LINE
  8
DETAIL
  6
CONTINUOUS
 62
     5
 10
144.0999999752716
 20
427.00000000000063
 30
0.0
 11
52.499999975273113
 21
427.00000000000063
 31
0.0
  0
LINE
  8
DETAIL
  6
CONTINUOUS
 62
     5
 10
52.499999975273113
 20
434.99999999999972
 30
0.0
 11
144.0999999752716
 21
434.99999999999972
 31
0.0
  0
LINE
  8
DETAIL
  6
CONTINUOUS
 62
     5
 10
160.09999997527299
 20
434.99999999999972
 30
0.0
 11
237.89999997527281
 21
434.99999999999972
 31
0.0
  0
LINE
  8
DETAIL
  6
CONTINUOUS
 62
     5
 10
320.39999997527281
 20
631.35430572810014
 30
0.0
 11
320.39999997527281
 21
12.400000000000089
 31
0.0
  0
LINE
  8
DETAIL
  6
CONTINUOUS
 62
     5
 10
332.3999999752732
 20
580.28647456190015
 30
0.0
 11
332.3999999752732
 21
46.513525438000443
 31
0.0
  0
LINE
  8
DETAIL
  6
CONTINUOUS
 62
     5
 10
237.89999997527281
 20
477.00000000000063
 30
0.0
 11
160.09999997527299
 21
477.00000000000063
 31
0.0
  0
LINE
  8
DETAIL
  6
CONTINUOUS
 62
     5
 10
144.0999999752716
 20
477.00000000000063
 30
0.0
 11
52.499999975273113
 21
477.00000000000063
 31
0.0
  0
LINE
  8
DETAIL
  6
CONTINUOUS
 62
     5
 10
52.499999975273113
 20
484.99999999999972
 30
0.0
 11
142.29999997527099
 21
484.99999999999972
 31
0.0
  0
LINE
  8
DETAIL
  6
CONTINUOUS
 62
     5
 10
160.09999997527299
 20
484.99999999999972
 30
0.0
 11
237.89999997527281
 21
484.99999999999972
 31
0.0
  0
LINE
  8
DETAIL
  6
CONTINUOUS
 62
     5
 10
142.29999997527099
 20
512.00000000000068
 30
0.0
 11
52.499999975273113
 21
512.00000000000068
 31
0.0
  0
LINE
  8
DETAIL
  6
CONTINUOUS
 62
     5
 10
80.912982455772635
 20
516.20000000000005
 30
0.0
 11
112.9870174948723
 21
516.20000000000005
 31
0.0
  0
LINE
  8
DETAIL
  6
CONTINUOUS
 62
     5
 10
127.85146865077191
 20
641.64852670909988
 30
0.0
 11
129.32425949257319
 21
640.1757345971007
 31
0.0
  0
LINE
  8
DETAIL
  6
CONTINUOUS
 62
     5
 10
237.89999997527281
 20
527.00000000000057
 30
0.0
 11
160.09999997527299
 21
527.00000000000057
 31
0.0
  0
LINE
  8
DETAIL
  6
CONTINUOUS
 62
     5
 10
141.4870174948714
 20
531.40000000000123
 30
0.0
 11
120.91298245577261
 21
531.40000000000123
 31
0.0
  0
LINE
  8
DETAIL
  6
CONTINUOUS
 62
     5
 10
72.987017494872362
 20
531.40000000000123
 30
0.0
 11
52.412982455771271
 21
531.40000000000123
 31
0.0
  0
LINE
  8
DETAIL
  6
CONTINUOUS
 62
     5
 10
160.09999997527299
 20
534.99999999999966
 30
0.0
 11
237.89999997527281
 21
534.99999999999966
 31
0.0
  0
LINE
  8
DETAIL
  6
CONTINUOUS
 62
     5
 10
264.758548090972
 20
8.0000000000006821
 30
0.0
 11
260.1397459373311
 21
0.0
 31
0.0
  0
LINE
  8
DETAIL
  6
CONTINUOUS
 62
     5
 10
237.89999997527281
 20
566.00000000000023
 30
0.0
 11
160.09999997527299
 21
566.00000000000023
 31
0.0
  0
LINE
  8
DETAIL
  6
CONTINUOUS
 62
     5
 10
52.412982455771271
 20
569.99999999999966
 30
0.0
 11
141.4870174948714
 21
569.99999999999966
 31
0.0
  0
LINE
  8
DETAIL
  6
CONTINUOUS
 62
     5
 10
52.499999975273113
 20
574.00000000000068
 30
0.0
 11
144.0999999752716
 21
574.00000000000068
 31
0.0
  0
LINE
  8
DETAIL
  6
CONTINUOUS
 62
     5
 10
160.09999997527299
 20
574.00000000000068
 30
0.0
 11
237.89999997527281
 21
574.00000000000068
 31
0.0
  0
LINE
  8
DETAIL
  6
CONTINUOUS
 62
     5
 10
330.4174530462729
 20
582.28639840810024
 30
0.0
 11
320.39999997527281
 21
582.37381939660065
 31
0.0
  0
LINE
  8
DETAIL
  6
CONTINUOUS
 62
     5
 10
208.7514686507711
 20
641.64852670909988
 30
0.0
 11
210.2242594925724
 21
640.1757345971007
 31
0.0
  0
LINE
  8
DETAIL
  6
CONTINUOUS
 62
     5
 10
237.89999997527281
 20
604.99999999999977
 30
0.0
 11
160.09999997527299
 21
604.99999999999977
 31
0.0
  0
LINE
  8
DETAIL
  6
CONTINUOUS
 62
     5
 10
144.0999999752716
 20
604.99999999999977
 30
0.0
 11
52.499999975273113
 21
604.99999999999977
 31
0.0
  0
LINE
  8
DETAIL
  6
CONTINUOUS
 62
     5
 10
30.499999975272662
 20
614.99999999999966
 30
0.0
 11
320.39999997527281
 21
614.99999999999966
 31
0.0
  0
LINE
  8
DETAIL
  6
CONTINUOUS
 62
     5
 10
300.82548337487202
 20
11.828427124700051
 30
0.0
 11
298.52010098797109
 21
9.5230447378003191
 31
0.0
  0
LINE
  8
DETAIL
  6
CONTINUOUS
 62
     5
 10
221.1514747806973
 20
640.00000000000784
 30
0.0
 11
210.64852222711349
 21
640.00000000002967
 31
0.0
  0
LINE
  8
DETAIL
  6
CONTINUOUS
 62
     5
 10
140.25147772347279
 20
639.99999999999966
 30
0.0
 11
129.74852516988449
 21
640.00000000000784
 31
0.0
  0
LINE
  8
DETAIL
  6
CONTINUOUS
 62
     5
 10
288.75147018347212
 20
641.64852753370064
 30
0.0
 11
290.22447547637279
 21
640.17552205960124
 31
0.0
  0
LINE
  8
DETAIL
  6
CONTINUOUS
 62
     5
 10
62.997058265173102
 20
642.00000000000068
 30
0.0
 11
127.0029413927727
 21
642.00000000000068
 31
0.0
  0
LINE
  8
DETAIL
  6
CONTINUOUS
 62
     5
 10
142.9970585577712
 20
642.00000000000068
 30
0.0
 11
207.90294139277191
 21
642.00000000000068
 31
0.0
  0
LINE
  8
DETAIL
  6
CONTINUOUS
 62
     5
 10
223.8970585577726
 20
642.00000000000068
 30
0.0
 11
287.90294257137248
 21
642.00000000000068
 31
0.0
  0
ARC
  8
DETAIL
  6
CONTINUOUS
 62
     5
 10
210.64852811267201
 20
640.60000000000048
 30
0.0
 40
0.6
 50
224.9997951148766
 51
269.99943797056369
  0
ARC
  8
DETAIL
  6
CONTINUOUS
 62
     5
 10
35.499999975272658
 20
631.35430545310078
 30
0.0
 40
5.0
 50
106.6238429244453
 51
179.99999684876539
  0
ARC
  8
DETAIL
  6
CONTINUOUS
 62
     5
 10
315.39999997527269
 20
631.35430563610021
 30
0.0
 40
5.0
 50
0.0000010537986793
 51
73.376156475570681
  0
ARC
  8
DETAIL
  6
CONTINUOUS
 62
     5
 10
221.151477723472
 20
640.60000000000048
 30
0.0
 40
0.6
 50
269.99971898580287
 51
314.99980746868567
  0
ARC
  8
DETAIL
  6
CONTINUOUS
 62
     5
 10
290.64873895227271
 20
640.59978672129967
 30
0.0
 40
0.6
 50
225.00008007124441
 51
269.877144429868
  0
ARC
  8
DETAIL
  6
CONTINUOUS
 62
     5
 10
140.25147772347279
 20
640.60000000000048
 30
0.0
 40
0.6
 50
269.99971898580287
 51
314.99980746868567
  0
ARC
  8
DETAIL
  6
CONTINUOUS
 62
     5
 10
60.251263038071549
 20
640.59978672570082
 30
0.0
 40
0.6
 50
270.12275755047551
 51
314.99985475409119
  0
ARC
  8
DETAIL
  6
CONTINUOUS
 62
     5
 10
129.7485281126728
 20
640.60000000000048
 30
0.0
 40
0.6
 50
224.9997951148766
 51
269.99971898450019
  0
ARC
  8
DETAIL
  6
CONTINUOUS
 62
     5
 10
223.89706086547221
 20
640.8000000000003
 30
0.0
 40
1.1999999999999991
 50
90.000110183256623
 51
135.0000964401392
  0
ARC
  8
DETAIL
  6
CONTINUOUS
 62
     5
 10
287.9029437004715
 20
640.8000000000003
 30
0.0
 40
1.1999999999999991
 50
45.000037236498663
 51
90.000053906707322
  0
ARC
  8
DETAIL
  6
CONTINUOUS
 62
     5
 10
142.997060865473
 20
640.8000000000003
 30
0.0
 40
1.1999999999999991
 50
90.000110183256623
 51
135.0000964401392
  0
ARC
  8
DETAIL
  6
CONTINUOUS
 62
     5
 10
207.9029437004715
 20
640.8000000000003
 30
0.0
 40
1.1999999999999991
 50
45.000071734953089
 51
90.000110183777721
  0
ARC
  8
DETAIL
  6
CONTINUOUS
 62
     5
 10
62.997060280272301
 20
640.8000000000003
 30
0.0
 40
1.1999999999999991
 50
90.000096211337393
 51
135.00007451638521
  0
ARC
  8
DETAIL
  6
CONTINUOUS
 62
     5
 10
127.0029437004723
 20
640.8000000000003
 30
0.0
 40
1.1999999999999991
 50
45.000071734953089
 51
90.000110183777721
  0
ARC
  8
DETAIL
  6
CONTINUOUS
 62
     5
 10
294.84314572577199
 20
13.2000000000005
 30
0.0
 40
5.2000000000000002
 50
270.0
 51
315.00000000004599
  0
ARC
  8
DETAIL
  6
CONTINUOUS
 62
     5
 10
49.756854224772262
 20
13.2000000000005
 30
0.0
 40
5.2000000000000002
 50
224.9999999999539
 51
270.0
  0
ARC
  8
DETAIL
  6
CONTINUOUS
 62
     5
 10
309.95391049967111
 20
9.0000000000009095
 30
0.0
 40
4.0
 50
121.653875592048
 51
128.6003233034842
  0
ARC
  8
DETAIL
  6
CONTINUOUS
 62
     5
 10
40.94608945097206
 20
9.0000000000009095
 30
0.0
 40
4.0
 50
44.99999999995395
 51
58.346124008705956
  0
ARC
  8
DETAIL
  6
CONTINUOUS
 62
     5
 10
303.65391049967229
 20
9.0000000000009095
 30
0.0
 40
4.0
 50
121.653875991294
 51
135.00000000004599
  0
ARC
  8
DETAIL
  6
CONTINUOUS
 62
     5
 10
330.39999997527269
 20
580.28647456190015
 30
0.0
 40
2.0
 50
0.0
 51
89.500000000034476
  0
ARC
  8
DETAIL
  6
CONTINUOUS
 62
     5
 10
330.39999997527269
 20
46.513525438000443
 30
0.0
 40
2.0
 50
270.49999999996538
 51
0.0
  0
ARC
  8
DETAIL
  6
CONTINUOUS
 62
     5
 10
237.89999997527281
 20
190.0
 30
0.0
 40
5.0
 50
270.0
 51
0.0
  0
ARC
  8
DETAIL
  6
CONTINUOUS
 62
     5
 10
237.89999997527281
 20
222.00000000000051
 30
0.0
 40
5.0
 50
0.0
 51
90.0
  0
ARC
  8
DETAIL
  6
CONTINUOUS
 62
     5
 10
160.09999997527299
 20
222.00000000000051
 30
0.0
 40
5.0
 50
90.0
 51
180.0
  0
ARC
  8
DETAIL
  6
CONTINUOUS
 62
     5
 10
160.09999997527299
 20
240.0
 30
0.0
 40
5.0
 50
180.0
 51
270.0
  0
ARC
  8
DETAIL
  6
CONTINUOUS
 62
     5
 10
237.89999997527281
 20
240.0
 30
0.0
 40
5.0
 50
270.0
 51
0.0
  0
ARC
  8
DETAIL
  6
CONTINUOUS
 62
     5
 10
237.89999997527281
 20
272.00000000000051
 30
0.0
 40
5.0
 50
0.0
 51
90.0
  0
ARC
  8
DETAIL
  6
CONTINUOUS
 62
     5
 10
160.09999997527299
 20
272.00000000000051
 30
0.0
 40
5.0
 50
90.0
 51
180.0
  0
ARC
  8
DETAIL
  6
CONTINUOUS
 62
     5
 10
160.09999997527299
 20
289.99999999999977
 30
0.0
 40
5.0
 50
180.0
 51
270.0
  0
ARC
  8
DETAIL
  6
CONTINUOUS
 62
     5
 10
237.89999997527281
 20
289.99999999999977
 30
0.0
 40
5.0
 50
270.0
 51
0.0
  0
ARC
  8
DETAIL
  6
CONTINUOUS
 62
     5
 10
237.89999997527281
 20
322.00000000000068
 30
0.0
 40
5.0
 50
0.0
 51
90.0
  0
ARC
  8
DETAIL
  6
CONTINUOUS
 62
     5
 10
160.09999997527299
 20
322.00000000000068
 30
0.0
 40
5.0
 50
90.0
 51
180.0
  0
ARC
  8
DETAIL
  6
CONTINUOUS
 62
     5
 10
160.09999997527299
 20
339.99999999999977
 30
0.0
 40
5.0
 50
180.0
 51
270.0
  0
ARC
  8
DETAIL
  6
CONTINUOUS
 62
     5
 10
237.89999997527281
 20
339.99999999999977
 30
0.0
 40
5.0
 50
270.0
 51
0.0
  0
ARC
  8
DETAIL
  6
CONTINUOUS
 62
     5
 10
237.89999997527281
 20
372.00000000000068
 30
0.0
 40
5.0
 50
0.0
 51
90.0
  0
ARC
  8
DETAIL
  6
CONTINUOUS
 62
     5
 10
160.09999997527299
 20
372.00000000000068
 30
0.0
 40
5.0
 50
90.0
 51
180.0
  0
ARC
  8
DETAIL
  6
CONTINUOUS
 62
     5
 10
160.09999997527299
 20
389.99999999999977
 30
0.0
 40
5.0
 50
180.0
 51
270.0
  0
ARC
  8
DETAIL
  6
CONTINUOUS
 62
     5
 10
237.89999997527281
 20
389.99999999999977
 30
0.0
 40
5.0
 50
270.0
 51
0.0
  0
ARC
  8
DETAIL
  6
CONTINUOUS
 62
     5
 10
237.89999997527281
 20
422.00000000000063
 30
0.0
 40
5.0
 50
0.0
 51
90.0
  0
ARC
  8
DETAIL
  6
CONTINUOUS
 62
     5
 10
160.09999997527299
 20
422.00000000000063
 30
0.0
 40
5.0
 50
90.0
 51
180.0
  0
ARC
  8
DETAIL
  6
CONTINUOUS
 62
     5
 10
160.09999997527299
 20
439.99999999999972
 30
0.0
 40
5.0
 50
180.0
 51
270.0
  0
ARC
  8
DETAIL
  6
CONTINUOUS
 62
     5
 10
237.89999997527281
 20
439.99999999999972
 30
0.0
 40
5.0
 50
270.0
 51
0.0
  0
ARC
  8
DETAIL
  6
CONTINUOUS
 62
     5
 10
237.89999997527281
 20
472.00000000000063
 30
0.0
 40
5.0
 50
0.0
 51
90.0
  0
ARC
  8
DETAIL
  6
CONTINUOUS
 62
     5
 10
160.09999997527299
 20
472.00000000000063
 30
0.0
 40
5.0
 50
90.0
 51
180.0
  0
ARC
  8
DETAIL
  6
CONTINUOUS
 62
     5
 10
142.29999997527099
 20
507.00000000000063
 30
0.0
 40
5.0
 50
0.0
 51
90.0
  0
ARC
  8
DETAIL
  6
CONTINUOUS
 62
     5
 10
52.499999975273113
 20
507.00000000000063
 30
0.0
 40
5.0
 50
90.0
 51
180.0
  0
ARC
  8
DETAIL
  6
CONTINUOUS
 62
     5
 10
52.499999975273113
 20
489.99999999999972
 30
0.0
 40
5.0
 50
180.0
 51
270.0
  0
ARC
  8
DETAIL
  6
CONTINUOUS
 62
     5
 10
142.29999997527099
 20
489.99999999999972
 30
0.0
 40
5.0
 50
270.0
 51
0.0
  0
ARC
  8
DETAIL
  6
CONTINUOUS
 62
     5
 10
160.09999997527299
 20
489.99999999999972
 30
0.0
 40
5.0
 50
180.0
 51
270.0
  0
ARC
  8
DETAIL
  6
CONTINUOUS
 62
     5
 10
237.89999997527281
 20
489.99999999999972
 30
0.0
 40
5.0
 50
270.0
 51
0.0
  0
ARC
  8
DETAIL
  6
CONTINUOUS
 62
     5
 10
237.89999997527281
 20
522.00000000000057
 30
0.0
 40
5.0
 50
0.0
 51
90.0
  0
ARC
  8
DETAIL
  6
CONTINUOUS
 62
     5
 10
160.09999997527299
 20
522.00000000000057
 30
0.0
 40
5.0
 50
90.0
 51
180.0
  0
ARC
  8
DETAIL
  6
CONTINUOUS
 62
     5
 10
160.09999997527299
 20
539.99999999999966
 30
0.0
 40
5.0
 50
180.0
 51
270.0
  0
ARC
  8
DETAIL
  6
CONTINUOUS
 62
     5
 10
237.89999997527281
 20
539.99999999999966
 30
0.0
 40
5.0
 50
270.0
 51
0.0
  0
ARC
  8
DETAIL
  6
CONTINUOUS
 62
     5
 10
237.89999997527281
 20
561.00000000000023
 30
0.0
 40
5.0
 50
0.0
 51
90.0
  0
ARC
  8
DETAIL
  6
CONTINUOUS
 62
     5
 10
160.09999997527299
 20
561.00000000000023
 30
0.0
 40
5.0
 50
90.0
 51
180.0
  0
ARC
  8
DETAIL
  6
CONTINUOUS
 62
     5
 10
52.499999975273113
 20
579.00000000000068
 30
0.0
 40
5.0
 50
180.0
 51
270.0
  0
ARC
  8
DETAIL
  6
CONTINUOUS
 62
     5
 10
144.0999999752716
 20
579.00000000000068
 30
0.0
 40
5.0
 50
270.0
 51
0.0
  0
ARC
  8
DETAIL
  6
CONTINUOUS
 62
     5
 10
144.0999999752716
 20
599.99999999999977
 30
0.0
 40
5.0
 50
0.0
 51
90.0
  0
ARC
  8
DETAIL
  6
CONTINUOUS
 62
     5
 10
52.499999975273113
 20
599.99999999999977
 30
0.0
 40
5.0
 50
90.0
 51
180.0
  0
ARC
  8
DETAIL
  6
CONTINUOUS
 62
     5
 10
160.09999997527299
 20
579.00000000000068
 30
0.0
 40
5.0
 50
180.0
 51
270.0
  0
ARC
  8
DETAIL
  6
CONTINUOUS
 62
     5
 10
237.89999997527281
 20
579.00000000000068
 30
0.0
 40
5.0
 50
270.0
 51
0.0
  0
ARC
  8
DETAIL
  6
CONTINUOUS
 62
     5
 10
237.89999997527281
 20
599.99999999999977
 30
0.0
 40
5.0
 50
0.0
 51
90.0
  0
ARC
  8
DETAIL
  6
CONTINUOUS
 62
     5
 10
160.09999997527299
 20
599.99999999999977
 30
0.0
 40
5.0
 50
90.0
 51
180.0
  0
ARC
  8
DETAIL
  6
CONTINUOUS
 62
     5
 10
52.499999975273113
 20
72.000000000000455
 30
0.0
 40
5.0
 50
90.0
 51
180.0
  0
ARC
  8
DETAIL
  6
CONTINUOUS
 62
     5
 10
52.499999975273113
 20
40.0
 30
0.0
 40
5.0
 50
180.0
 51
270.0
  0
ARC
  8
DETAIL
  6
CONTINUOUS
 62
     5
 10
144.0999999752716
 20
40.0
 30
0.0
 40
5.0
 50
270.0
 51
0.0
  0
ARC
  8
DETAIL
  6
CONTINUOUS
 62
     5
 10
144.0999999752716
 20
72.000000000000455
 30
0.0
 40
5.0
 50
0.0
 51
90.0
  0
ARC
  8
DETAIL
  6
CONTINUOUS
 62
     5
 10
52.499999975273113
 20
122.0000000000004
 30
0.0
 40
5.0
 50
90.0
 51
180.0
  0
ARC
  8
DETAIL
  6
CONTINUOUS
 62
     5
 10
52.499999975273113
 20
90.0
 30
0.0
 40
5.0
 50
180.0
 51
270.0
  0
ARC
  8
DETAIL
  6
CONTINUOUS
 62
     5
 10
144.0999999752716
 20
90.0
 30
0.0
 40
5.0
 50
270.0
 51
0.0
  0
ARC
  8
DETAIL
  6
CONTINUOUS
 62
     5
 10
144.0999999752716
 20
122.0000000000004
 30
0.0
 40
5.0
 50
0.0
 51
90.0
  0
ARC
  8
DETAIL
  6
CONTINUOUS
 62
     5
 10
52.499999975273113
 20
172.0000000000004
 30
0.0
 40
5.0
 50
90.0
 51
180.0
  0
ARC
  8
DETAIL
  6
CONTINUOUS
 62
     5
 10
52.499999975273113
 20
140.0
 30
0.0
 40
5.0
 50
180.0
 51
270.0
  0
ARC
  8
DETAIL
  6
CONTINUOUS
 62
     5
 10
144.0999999752716
 20
140.0
 30
0.0
 40
5.0
 50
270.0
 51
0.0
  0
ARC
  8
DETAIL
  6
CONTINUOUS
 62
     5
 10
144.0999999752716
 20
172.0000000000004
 30
0.0
 40
5.0
 50
0.0
 51
90.0
  0
ARC
  8
DETAIL
  6
CONTINUOUS
 62
     5
 10
52.499999975273113
 20
222.00000000000051
 30
0.0
 40
5.0
 50
90.0
 51
180.0
  0
ARC
  8
DETAIL
  6
CONTINUOUS
 62
     5
 10
52.499999975273113
 20
190.0
 30
0.0
 40
5.0
 50
180.0
 51
270.0
  0
ARC
  8
DETAIL
  6
CONTINUOUS
 62
     5
 10
144.0999999752716
 20
190.0
 30
0.0
 40
5.0
 50
270.0
 51
0.0
  0
ARC
  8
DETAIL
  6
CONTINUOUS
 62
     5
 10
144.0999999752716
 20
222.00000000000051
 30
0.0
 40
5.0
 50
0.0
 51
90.0
  0
ARC
  8
DETAIL
  6
CONTINUOUS
 62
     5
 10
52.499999975273113
 20
272.00000000000051
 30
0.0
 40
5.0
 50
90.0
 51
180.0
  0
ARC
  8
DETAIL
  6
CONTINUOUS
 62
     5
 10
52.499999975273113
 20
240.0
 30
0.0
 40
5.0
 50
180.0
 51
270.0
  0
ARC
  8
DETAIL
  6
CONTINUOUS
 62
     5
 10
144.0999999752716
 20
240.0
 30
0.0
 40
5.0
 50
270.0
 51
0.0
  0
ARC
  8
DETAIL
  6
CONTINUOUS
 62
     5
 10
144.0999999752716
 20
272.00000000000051
 30
0.0
 40
5.0
 50
0.0
 51
90.0
  0
ARC
  8
DETAIL
  6
CONTINUOUS
 62
     5
 10
52.499999975273113
 20
322.00000000000068
 30
0.0
 40
5.0
 50
90.0
 51
180.0
  0
ARC
  8
DETAIL
  6
CONTINUOUS
 62
     5
 10
52.499999975273113
 20
289.99999999999977
 30
0.0
 40
5.0
 50
180.0
 51
270.0
  0
ARC
  8
DETAIL
  6
CONTINUOUS
 62
     5
 10
144.0999999752716
 20
289.99999999999977
 30
0.0
 40
5.0
 50
270.0
 51
0.0
  0
ARC
  8
DETAIL
  6
CONTINUOUS
 62
     5
 10
144.0999999752716
 20
322.00000000000068
 30
0.0
 40
5.0
 50
0.0
 51
90.0
  0
ARC
  8
DETAIL
  6
CONTINUOUS
 62
     5
 10
52.499999975273113
 20
372.00000000000068
 30
0.0
 40
5.0
 50
90.0
 51
180.0
  0
ARC
  8
DETAIL
  6
CONTINUOUS
 62
     5
 10
52.499999975273113
 20
339.99999999999977
 30
0.0
 40
5.0
 50
180.0
 51
270.0
  0
ARC
  8
DETAIL
  6
CONTINUOUS
 62
     5
 10
144.0999999752716
 20
339.99999999999977
 30
0.0
 40
5.0
 50
270.0
 51
0.0
  0
ARC
  8
DETAIL
  6
CONTINUOUS
 62
     5
 10
144.0999999752716
 20
372.00000000000068
 30
0.0
 40
5.0
 50
0.0
 51
90.0
  0
ARC
  8
DETAIL
  6
CONTINUOUS
 62
     5
 10
52.499999975273113
 20
422.00000000000063
 30
0.0
 40
5.0
 50
90.0
 51
180.0
  0
ARC
  8
DETAIL
  6
CONTINUOUS
 62
     5
 10
52.499999975273113
 20
389.99999999999977
 30
0.0
 40
5.0
 50
180.0
 51
270.0
  0
ARC
  8
DETAIL
  6
CONTINUOUS
 62
     5
 10
144.0999999752716
 20
389.99999999999977
 30
0.0
 40
5.0
 50
270.0
 51
0.0
  0
ARC
  8
DETAIL
  6
CONTINUOUS
 62
     5
 10
144.0999999752716
 20
422.00000000000063
 30
0.0
 40
5.0
 50
0.0
 51
90.0
  0
ARC
  8
DETAIL
  6
CONTINUOUS
 62
     5
 10
52.499999975273113
 20
472.00000000000063
 30
0.0
 40
5.0
 50
90.0
 51
180.0
  0
ARC
  8
DETAIL
  6
CONTINUOUS
 62
     5
 10
52.499999975273113
 20
439.99999999999972
 30
0.0
 40
5.0
 50
180.0
 51
270.0
  0
ARC
  8
DETAIL
  6
CONTINUOUS
 62
     5
 10
144.0999999752716
 20
439.99999999999972
 30
0.0
 40
5.0
 50
270.0
 51
0.0
  0
ARC
  8
DETAIL
  6
CONTINUOUS
 62
     5
 10
144.0999999752716
 20
472.00000000000063
 30
0.0
 40
5.0
 50
0.0
 51
90.0
  0
ARC
  8
DETAIL
  6
CONTINUOUS
 62
     5
 10
160.09999997527299
 20
40.0
 30
0.0
 40
5.0
 50
180.0
 51
270.0
  0
ARC
  8
DETAIL
  6
CONTINUOUS
 62
     5
 10
237.89999997527281
 20
40.0
 30
0.0
 40
5.0
 50
270.0
 51
0.0
  0
ARC
  8
DETAIL
  6
CONTINUOUS
 62
     5
 10
237.89999997527281
 20
72.000000000000455
 30
0.0
 40
5.0
 50
0.0
 51
90.0
  0
ARC
  8
DETAIL
  6
CONTINUOUS
 62
     5
 10
160.09999997527299
 20
72.000000000000455
 30
0.0
 40
5.0
 50
90.0
 51
180.0
  0
ARC
  8
DETAIL
  6
CONTINUOUS
 62
     5
 10
160.09999997527299
 20
90.0
 30
0.0
 40
5.0
 50
180.0
 51
270.0
  0
ARC
  8
DETAIL
  6
CONTINUOUS
 62
     5
 10
237.89999997527281
 20
90.0
 30
0.0
 40
5.0
 50
270.0
 51
0.0
  0
ARC
  8
DETAIL
  6
CONTINUOUS
 62
     5
 10
237.89999997527281
 20
122.0000000000004
 30
0.0
 40
5.0
 50
0.0
 51
90.0
  0
ARC
  8
DETAIL
  6
CONTINUOUS
 62
     5
 10
160.09999997527299
 20
122.0000000000004
 30
0.0
 40
5.0
 50
90.0
 51
180.0
  0
ARC
  8
DETAIL
  6
CONTINUOUS
 62
     5
 10
160.09999997527299
 20
140.0
 30
0.0
 40
5.0
 50
180.0
 51
270.0
  0
ARC
  8
DETAIL
  6
CONTINUOUS
 62
     5
 10
237.89999997527281
 20
140.0
 30
0.0
 40
5.0
 50
270.0
 51
0.0
  0
ARC
  8
DETAIL
  6
CONTINUOUS
 62
     5
 10
237.89999997527281
 20
172.0000000000004
 30
0.0
 40
5.0
 50
0.0
 51
90.0
  0
ARC
  8
DETAIL
  6
CONTINUOUS
 62
     5
 10
160.09999997527299
 20
172.0000000000004
 30
0.0
 40
5.0
 50
90.0
 51
180.0
  0
ARC
  8
DETAIL
  6
CONTINUOUS
 62
     5
 10
160.09999997527299
 20
190.0
 30
0.0
 40
5.0
 50
180.0
 51
270.0
  0
POLYLINE
  8
DETAIL
  6
CONTINUOUS
 62
     5
 66
     1
 10
0.0
 20
0.0
 30
0.0
  0
VERTEX
  8
DETAIL
  6
CONTINUOUS
 62
     5
 10
120.91298245577261
 20
531.40000000000123
 30
0.0
  0
VERTEX
  8
DETAIL
  6
CONTINUOUS
 62
     5
 10
120.53355566582944
 20
531.38059369577354
 30
0.0
  0
VERTEX
  8
DETAIL
  6
CONTINUOUS
 62
     5
 10
120.15791215422357
 20
531.32261231941516
 30
0.0
  0
VERTEX
  8
DETAIL
  6
CONTINUOUS
 62
     5
 10
119.79022197718415
 20
531.22678650091973
 30
0.0
  0
VERTEX
  8
DETAIL
  6
CONTINUOUS
 62
     5
 10
119.43406305164768
 20
531.09436868717148
 30
0.0
  0
VERTEX
  8
DETAIL
  6
CONTINUOUS
 62
     5
 10
119.09286192874755
 20
530.92711405338184
 30
0.0
  0
VERTEX
  8
DETAIL
  6
CONTINUOUS
 62
     5
 10
118.76976817228463
 20
530.72713555982159
 30
0.0
  0
VERTEX
  8
DETAIL
  6
CONTINUOUS
 62
     5
 10
118.4675272488946
 20
530.496868188794
 30
0.0
  0
VERTEX
  8
DETAIL
  6
CONTINUOUS
 62
     5
 10
118.18849281137288
 20
530.23897113982252
 30
0.0
  0
VERTEX
  8
DETAIL
  6
CONTINUOUS
 62
     5
 10
117.93467658773994
 20
529.95623472651903
 30
0.0
  0
VERTEX
  8
DETAIL
  6
CONTINUOUS
 62
     5
 10
117.70771353562209
 20
529.65153105201034
 30
0.0
  0
VERTEX
  8
DETAIL
  6
CONTINUOUS
 62
     5
 10
117.50891463976929
 20
529.32775192049678
 30
0.0
  0
VERTEX
  8
DETAIL
  6
CONTINUOUS
 62
     5
 10
117.33932453080074
 20
528.98777499451353
 30
0.0
  0
VERTEX
  8
DETAIL
  6
CONTINUOUS
 62
     5
 10
117.19971913171365
 20
528.63442568736104
 30
0.0
  0
VERTEX
  8
DETAIL
  6
CONTINUOUS
 62
     5
 10
117.09066762033542
 20
528.27049728110444
 30
0.0
  0
VERTEX
  8
DETAIL
  6
CONTINUOUS
 62
     5
 10
117.01256615550098
 20
527.89871288897461
 30
0.0
  0
VERTEX
  8
DETAIL
  6
CONTINUOUS
 62
     5
 10
116.96564371978236
 20
527.52164399369838
 30
0.0
  0
VERTEX
  8
DETAIL
  6
CONTINUOUS
 62
     5
 10
116.9499999752725
 20
527.14210053460079
 30
0.0
  0
SEQEND
  8
DETAIL
  6
CONTINUOUS
 62
     5
  0
POLYLINE
  8
DETAIL
  6
CONTINUOUS
 62
     5
 66
     1
 10
0.0
 20
0.0
 30
0.0
  0
VERTEX
  8
DETAIL
  6
CONTINUOUS
 62
     5
 10
76.949999975272476
 20
527.14210053460079
 30
0.0
  0
VERTEX
  8
DETAIL
  6
CONTINUOUS
 62
     5
 10
76.934356229249829
 20
527.52164400413585
 30
0.0
  0
VERTEX
  8
DETAIL
  6
CONTINUOUS
 62
     5
 10
76.887433775399941
 20
527.8987130007165
 30
0.0
  0
VERTEX
  8
DETAIL
  6
CONTINUOUS
 62
     5
 10
76.809332267665994
 20
528.27049753592223
 30
0.0
  0
VERTEX
  8
DETAIL
  6
CONTINUOUS
 62
     5
 10
76.700280686753032
 20
528.63442605089392
 30
0.0
  0
VERTEX
  8
DETAIL
  6
CONTINUOUS
 62
     5
 10
76.560675235276946
 20
528.98777541624895
 30
0.0
  0
VERTEX
  8
DETAIL
  6
CONTINUOUS
 62
     5
 10
76.391085094216535
 20
529.32775230532877
 30
0.0
  0
VERTEX
  8
DETAIL
  6
CONTINUOUS
 62
     5
 10
76.192286261341323
 20
529.6515312846401
 30
0.0
  0
VERTEX
  8
DETAIL
  6
CONTINUOUS
 62
     5
 10
75.96532334536532
 20
529.95623475562888
 30
0.0
  0
VERTEX
  8
DETAIL
  6
CONTINUOUS
 62
     5
 10
75.711507316870907
 20
530.23897096401049
 30
0.0
  0
VERTEX
  8
DETAIL
  6
CONTINUOUS
 62
     5
 10
75.432473103422993
 20
530.49686786449683
 30
0.0
  0
VERTEX
  8
DETAIL
  6
CONTINUOUS
 62
     5
 10
75.130232339481836
 20
530.72713516198712
 30
0.0
  0
VERTEX
  8
DETAIL
  6
CONTINUOUS
 62
     5
 10
74.807138660112116
 20
530.9271137141983
 30
0.0
  0
VERTEX
  8
DETAIL
  6
CONTINUOUS
 62
     5
 10
74.465937438042317
 20
531.09436843939693
 30
0.0
  0
VERTEX
  8
DETAIL
  6
CONTINUOUS
 62
     5
 10
74.109778373281657
 20
531.22678637394029
 30
0.0
  0
VERTEX
  8
DETAIL
  6
CONTINUOUS
 62
     5
 10
73.742087976422923
 20
531.32261227754566
 30
0.0
  0
VERTEX
  8
DETAIL
  6
CONTINUOUS
 62
     5
 10
73.36644430553936
 20
531.38059369072346
 30
0.0
  0
SEQEND
  8
DETAIL
  6
CONTINUOUS
 62
     5
  0
POLYLINE
  8
DETAIL
  6
CONTINUOUS
 62
     5
 66
     1
 10
0.0
 20
0.0
 30
0.0
  0
VERTEX
  8
DETAIL
  6
CONTINUOUS
 62
     5
 10
141.4870174948714
 20
569.99999999999966
 30
0.0
  0
VERTEX
  8
DETAIL
  6
CONTINUOUS
 62
     5
 10
141.86644428480915
 20
569.98059369576481
 30
0.0
  0
VERTEX
  8
DETAIL
  6
CONTINUOUS
 62
     5
 10
142.24208779640981
 20
569.92261231939744
 30
0.0
  0
VERTEX
  8
DETAIL
  6
CONTINUOUS
 62
     5
 10
142.60977797344214
 20
569.82678650089451
 30
0.0
  0
VERTEX
  8
DETAIL
  6
CONTINUOUS
 62
     5
 10
142.96593689896667
 20
569.69436868713296
 30
0.0
  0
VERTEX
  8
DETAIL
  6
CONTINUOUS
 62
     5
 10
143.30713802187097
 20
569.52711405335617
 30
0.0
  0
VERTEX
  8
DETAIL
  6
CONTINUOUS
 62
     5
 10
143.63023177834842
 20
569.32713555982832
 30
0.0
  0
VERTEX
  8
DETAIL
  6
CONTINUOUS
 62
     5
 10
143.93247270171562
 20
569.09686818878276
 30
0.0
  0
VERTEX
  8
DETAIL
  6
CONTINUOUS
 62
     5
 10
144.21150713920548
 20
568.8389711397798
 30
0.0
  0
VERTEX
  8
DETAIL
  6
CONTINUOUS
 62
     5
 10
144.46532336283275
 20
568.55623472647846
 30
0.0
  0
VERTEX
  8
DETAIL
  6
CONTINUOUS
 62
     5
 10
144.69228641495079
 20
568.25153105197569
 30
0.0
  0
VERTEX
  8
DETAIL
  6
CONTINUOUS
 62
     5
 10
144.89108531079103
 20
567.92775192046054
 30
0.0
  0
VERTEX
  8
DETAIL
  6
CONTINUOUS
 62
     5
 10
145.06067541974616
 20
567.58777499447751
 30
0.0
  0
VERTEX
  8
DETAIL
  6
CONTINUOUS
 62
     5
 10
145.20028081888429
 20
567.23442568734538
 30
0.0
  0
VERTEX
  8
DETAIL
  6
CONTINUOUS
 62
     5
 10
145.30933233030609
 20
566.87049728110992
 30
0.0
  0
VERTEX
  8
DETAIL
  6
CONTINUOUS
 62
     5
 10
145.38743379507463
 20
566.49871288897225
 30
0.0
  0
VERTEX
  8
DETAIL
  6
CONTINUOUS
 62
     5
 10
145.43435623075149
 20
566.12164399369181
 30
0.0
  0
VERTEX
  8
DETAIL
  6
CONTINUOUS
 62
     5
 10
145.44999997527151
 20
565.74210053460115
 30
0.0
  0
SEQEND
  8
DETAIL
  6
CONTINUOUS
 62
     5
  0
POLYLINE
  8
DETAIL
  6
CONTINUOUS
 62
     5
 66
     1
 10
0.0
 20
0.0
 30
0.0
  0
VERTEX
  8
DETAIL
  6
CONTINUOUS
 62
     5
 10
145.44999997527151
 20
535.65789946539985
 30
0.0
  0
VERTEX
  8
DETAIL
  6
CONTINUOUS
 62
     5
 10
145.43435622925992
 20
535.27835599586081
 30
0.0
  0
VERTEX
  8
DETAIL
  6
CONTINUOUS
 62
     5
 10
145.38743377540823
 20
534.90128699927936
 30
0.0
  0
VERTEX
  8
DETAIL
  6
CONTINUOUS
 62
     5
 10
145.30933226766277
 20
534.52950246407249
 30
0.0
  0
VERTEX
  8
DETAIL
  6
CONTINUOUS
 62
     5
 10
145.20028068677439
 20
534.16557394908875
 30
0.0
  0
VERTEX
  8
DETAIL
  6
CONTINUOUS
 62
     5
 10
145.06067523530538
 20
533.81222458373077
 30
0.0
  0
VERTEX
  8
DETAIL
  6
CONTINUOUS
 62
     5
 10
144.89108509421439
 20
533.47224769466197
 30
0.0
  0
VERTEX
  8
DETAIL
  6
CONTINUOUS
 62
     5
 10
144.69228626133022
 20
533.14846871535053
 30
0.0
  0
VERTEX
  8
DETAIL
  6
CONTINUOUS
 62
     5
 10
144.46532334535397
 20
532.84376524436163
 30
0.0
  0
VERTEX
  8
DETAIL
  6
CONTINUOUS
 62
     5
 10
144.21150731685481
 20
532.56102903598105
 30
0.0
  0
VERTEX
  8
DETAIL
  6
CONTINUOUS
 62
     5
 10
143.93247310343125
 20
532.30313213546015
 30
0.0
  0
VERTEX
  8
DETAIL
  6
CONTINUOUS
 62
     5
 10
143.63023233951714
 20
532.07286483793405
 30
0.0
  0
VERTEX
  8
DETAIL
  6
CONTINUOUS
 62
     5
 10
143.30713866014565
 20
531.87288628572128
 30
0.0
  0
VERTEX
  8
DETAIL
  6
CONTINUOUS
 62
     5
 10
142.96593743807429
 20
531.70563156051048
 30
0.0
  0
VERTEX
  8
DETAIL
  6
CONTINUOUS
 62
     5
 10
142.60977837331077
 20
531.57321362597429
 30
0.0
  0
VERTEX
  8
DETAIL
  6
CONTINUOUS
 62
     5
 10
142.24208797643348
 20
531.47738772243383
 30
0.0
  0
VERTEX
  8
DETAIL
  6
CONTINUOUS
 62
     5
 10
141.86644430553906
 20
531.41940630928775
 30
0.0
  0
VERTEX
  8
DETAIL
  6
CONTINUOUS
 62
     5
 10
141.4870174948714
 20
531.40000000000123
 30
0.0
  0
SEQEND
  8
DETAIL
  6
CONTINUOUS
 62
     5
  0
POLYLINE
  8
DETAIL
  6
CONTINUOUS
 62
     5
 66
     1
 10
0.0
 20
0.0
 30
0.0
  0
VERTEX
  8
DETAIL
  6
CONTINUOUS
 62
     5
 10
116.9499999752725
 20
520.45789946540003
 30
0.0
  0
VERTEX
  8
DETAIL
  6
CONTINUOUS
 62
     5
 10
116.93435622925951
 20
520.07835599586122
 30
0.0
  0
VERTEX
  8
DETAIL
  6
CONTINUOUS
 62
     5
 10
116.88743377540655
 20
519.70128699927989
 30
0.0
  0
VERTEX
  8
DETAIL
  6
CONTINUOUS
 62
     5
 10
116.80933226766135
 20
519.3295024640729
 30
0.0
  0
VERTEX
  8
DETAIL
  6
CONTINUOUS
 62
     5
 10
116.7002806867729
 20
518.96557394908928
 30
0.0
  0
VERTEX
  8
DETAIL
  6
CONTINUOUS
 62
     5
 10
116.56067523530442
 20
518.61222458373095
 30
0.0
  0
VERTEX
  8
DETAIL
  6
CONTINUOUS
 62
     5
 10
116.39108509421486
 20
518.27224769466181
 30
0.0
  0
VERTEX
  8
DETAIL
  6
CONTINUOUS
 62
     5
 10
116.19228626133116
 20
517.94846871535015
 30
0.0
  0
VERTEX
  8
DETAIL
  6
CONTINUOUS
 62
     5
 10
115.96532334535432
 20
517.64376524436182
 30
0.0
  0
VERTEX
  8
DETAIL
  6
CONTINUOUS
 62
     5
 10
115.71150731685431
 20
517.3610290359818
 30
0.0
  0
VERTEX
  8
DETAIL
  6
CONTINUOUS
 62
     5
 10
115.43247310343115
 20
517.10313213546056
 30
0.0
  0
VERTEX
  8
DETAIL
  6
CONTINUOUS
 62
     5
 10
115.13023233951776
 20
516.872864837934
 30
0.0
  0
VERTEX
  8
DETAIL
  6
CONTINUOUS
 62
     5
 10
114.80713866014622
 20
516.67288628572123
 30
0.0
  0
VERTEX
  8
DETAIL
  6
CONTINUOUS
 62
     5
 10
114.46593743807456
 20
516.50563156051112
 30
0.0
  0
VERTEX
  8
DETAIL
  6
CONTINUOUS
 62
     5
 10
114.10977837331099
 20
516.37321362597481
 30
0.0
  0
VERTEX
  8
DETAIL
  6
CONTINUOUS
 62
     5
 10
113.74208797643416
 20
516.2773877224331
 30
0.0
  0
VERTEX
  8
DETAIL
  6
CONTINUOUS
 62
     5
 10
113.36644430553997
 20
516.21940630928646
 30
0.0
  0
VERTEX
  8
DETAIL
  6
CONTINUOUS
 62
     5
 10
112.9870174948723
 20
516.20000000000005
 30
0.0
  0
SEQEND
  8
DETAIL
  6
CONTINUOUS
 62
     5
  0
POLYLINE
  8
DETAIL
  6
CONTINUOUS
 62
     5
 66
     1
 10
0.0
 20
0.0
 30
0.0
  0
VERTEX
  8
DETAIL
  6
CONTINUOUS
 62
     5
 10
80.912982455772635
 20
516.20000000000005
 30
0.0
  0
VERTEX
  8
DETAIL
  6
CONTINUOUS
 62
     5
 10
80.533555665828402
 20
516.21940630423546
 30
0.0
  0
VERTEX
  8
DETAIL
  6
CONTINUOUS
 62
     5
 10
80.157912154213122
 20
516.2773876805644
 30
0.0
  0
VERTEX
  8
DETAIL
  6
CONTINUOUS
 62
     5
 10
79.79022197715534
 20
516.37321349899594
 30
0.0
  0
VERTEX
  8
DETAIL
  6
CONTINUOUS
 62
     5
 10
79.434063051609641
 20
516.50563131272747
 30
0.0
  0
VERTEX
  8
DETAIL
  6
CONTINUOUS
 62
     5
 10
79.092861928723195
 20
516.67288594655292
 30
0.0
  0
VERTEX
  8
DETAIL
  6
CONTINUOUS
 62
     5
 10
78.769768172289446
 20
516.87286444016559
 30
0.0
  0
VERTEX
  8
DETAIL
  6
CONTINUOUS
 62
     5
 10
78.467527248910429
 20
517.10313181121217
 30
0.0
  0
VERTEX
  8
DETAIL
  6
CONTINUOUS
 62
     5
 10
78.188492811370608
 20
517.36102886016715
 30
0.0
  0
VERTEX
  8
DETAIL
  6
CONTINUOUS
 62
     5
 10
77.934676587703649
 20
517.64376527344382
 30
0.0
  0
VERTEX
  8
DETAIL
  6
CONTINUOUS
 62
     5
 10
77.707713535571457
 20
517.94846894794557
 30
0.0
  0
VERTEX
  8
DETAIL
  6
CONTINUOUS
 62
     5
 10
77.50891463973629
 20
518.27224807947323
 30
0.0
  0
VERTEX
  8
DETAIL
  6
CONTINUOUS
 62
     5
 10
77.339324530799587
 20
518.61222500547467
 30
0.0
  0
VERTEX
  8
DETAIL
  6
CONTINUOUS
 62
     5
 10
77.19971913170896
 20
518.96557431263091
 30
0.0
  0
VERTEX
  8
DETAIL
  6
CONTINUOUS
 62
     5
 10
77.09066762031263
 20
519.32950271888319
 30
0.0
  0
VERTEX
  8
DETAIL
  6
CONTINUOUS
 62
     5
 10
77.012566155493531
 20
519.70128711101893
 30
0.0
  0
VERTEX
  8
DETAIL
  6
CONTINUOUS
 62
     5
 10
76.965643719785675
 20
520.07835600630051
 30
0.0
  0
VERTEX
  8
DETAIL
  6
CONTINUOUS
 62
     5
 10
76.949999975272476
 20
520.45789946540003
 30
0.0
  0
SEQEND
  8
DETAIL
  6
CONTINUOUS
 62
     5
  0
POLYLINE
  8
DETAIL
  6
CONTINUOUS
 62
     5
 66
     1
 10
0.0
 20
0.0
 30
0.0
  0
VERTEX
  8
DETAIL
  6
CONTINUOUS
 62
     5
 10
52.412982455771271
 20
531.40000000000123
 30
0.0
  0
VERTEX
  8
DETAIL
  6
CONTINUOUS
 62
     5
 10
52.033555665827066
 20
531.41940630423608
 30
0.0
  0
VERTEX
  8
DETAIL
  6
CONTINUOUS
 62
     5
 10
51.657912154211864
 20
531.47738768056468
 30
0.0
  0
VERTEX
  8
DETAIL
  6
CONTINUOUS
 62
     5
 10
51.290221977154225
 20
531.57321349899632
 30
0.0
  0
VERTEX
  8
DETAIL
  6
CONTINUOUS
 62
     5
 10
50.934063051608618
 20
531.70563131272797
 30
0.0
  0
VERTEX
  8
DETAIL
  6
CONTINUOUS
 62
     5
 10
50.592861928722506
 20
531.87288594655354
 30
0.0
  0
VERTEX
  8
DETAIL
  6
CONTINUOUS
 62
     5
 10
50.269768172288998
 20
532.07286444016654
 30
0.0
  0
VERTEX
  8
DETAIL
  6
CONTINUOUS
 62
     5
 10
49.967527248909342
 20
532.30313181121221
 30
0.0
  0
VERTEX
  8
DETAIL
  6
CONTINUOUS
 62
     5
 10
49.68849281136945
 20
532.56102886016697
 30
0.0
  0
VERTEX
  8
DETAIL
  6
CONTINUOUS
 62
     5
 10
49.434676587703663
 20
532.84376527344455
 30
0.0
  0
VERTEX
  8
DETAIL
  6
CONTINUOUS
 62
     5
 10
49.207713535571223
 20
533.14846894794607
 30
0.0
  0
VERTEX
  8
DETAIL
  6
CONTINUOUS
 62
     5
 10
49.008914639735679
 20
533.47224807947327
 30
0.0
  0
VERTEX
  8
DETAIL
  6
CONTINUOUS
 62
     5
 10
48.839324530800084
 20
533.8122250054754
 30
0.0
  0
VERTEX
  8
DETAIL
  6
CONTINUOUS
 62
     5
 10
48.699719131708818
 20
534.16557431263129
 30
0.0
  0
VERTEX
  8
DETAIL
  6
CONTINUOUS
 62
     5
 10
48.590667620311514
 20
534.52950271888301
 30
0.0
  0
VERTEX
  8
DETAIL
  6
CONTINUOUS
 62
     5
 10
48.512566155494035
 20
534.90128711101886
 30
0.0
  0
VERTEX
  8
DETAIL
  6
CONTINUOUS
 62
     5
 10
48.465643719785888
 20
535.27835600630056
 30
0.0
  0
VERTEX
  8
DETAIL
  6
CONTINUOUS
 62
     5
 10
48.449999975271112
 20
535.65789946539985
 30
0.0
  0
SEQEND
  8
DETAIL
  6
CONTINUOUS
 62
     5
  0
POLYLINE
  8
DETAIL
  6
CONTINUOUS
 62
     5
 66
     1
 10
0.0
 20
0.0
 30
0.0
  0
VERTEX
  8
DETAIL
  6
CONTINUOUS
 62
     5
 10
48.449999975271112
 20
565.74210053460115
 30
0.0
  0
VERTEX
  8
DETAIL
  6
CONTINUOUS
 62
     5
 10
48.465643721361637
 20
566.12164400413519
 30
0.0
  0
VERTEX
  8
DETAIL
  6
CONTINUOUS
 62
     5
 10
48.512566175233161
 20
566.498713000723
 30
0.0
  0
VERTEX
  8
DETAIL
  6
CONTINUOUS
 62
     5
 10
48.590667682890988
 20
566.87049753594658
 30
0.0
  0
VERTEX
  8
DETAIL
  6
CONTINUOUS
 62
     5
 10
48.699719263789866
 20
567.23442605092521
 30
0.0
  0
VERTEX
  8
DETAIL
  6
CONTINUOUS
 62
     5
 10
48.839324715285194
 20
567.58777541628001
 30
0.0
  0
VERTEX
  8
DETAIL
  6
CONTINUOUS
 62
     5
 10
49.008914856347914
 20
567.92775230536301
 30
0.0
  0
VERTEX
  8
DETAIL
  6
CONTINUOUS
 62
     5
 10
49.207713689219432
 20
568.25153128468367
 30
0.0
  0
VERTEX
  8
DETAIL
  6
CONTINUOUS
 62
     5
 10
49.434676605219011
 20
568.55623475565767
 30
0.0
  0
VERTEX
  8
DETAIL
  6
CONTINUOUS
 62
     5
 10
49.688492633758848
 20
568.83897096400415
 30
0.0
  0
VERTEX
  8
DETAIL
  6
CONTINUOUS
 62
     5
 10
49.967526847201448
 20
569.09686786450766
 30
0.0
  0
VERTEX
  8
DETAIL
  6
CONTINUOUS
 62
     5
 10
50.269767611118439
 20
569.32713516203125
 30
0.0
  0
VERTEX
  8
DETAIL
  6
CONTINUOUS
 62
     5
 10
50.592861290496899
 20
569.5271137142372
 30
0.0
  0
VERTEX
  8
DETAIL
  6
CONTINUOUS
 62
     5
 10
50.934062512578201
 20
569.69436843942651
 30
0.0
  0
VERTEX
  8
DETAIL
  6
CONTINUOUS
 62
     5
 10
51.290221577343829
 20
569.82678637396623
 30
0.0
  0
VERTEX
  8
DETAIL
  6
CONTINUOUS
 62
     5
 10
51.657911974209334
 20
569.92261227756364
 30
0.0
  0
VERTEX
  8
DETAIL
  6
CONTINUOUS
 62
     5
 10
52.033555645099398
 20
569.98059369072917
 30
0.0
  0
SEQEND
  8
DETAIL
  6
CONTINUOUS
 62
     5
  0
POLYLINE
  8
DETAIL
  6
CONTINUOUS
 62
     5
 66
     1
 10
0.0
 20
0.0
 30
0.0
  0
VERTEX
  8
DETAIL
  6
CONTINUOUS
 62
     5
 10
34.069564216672461
 20
636.14532373480074
 30
0.0
  0
VERTEX
  8
DETAIL
  6
CONTINUOUS
 62
     5
 10
37.264533023976583
 20
637.03702368036988
 30
0.0
  0
VERTEX
  8
DETAIL
  6
CONTINUOUS
 62
     5
 10
40.490696530689675
 20
637.81361798119724
 30
0.0
  0
VERTEX
  8
DETAIL
  6
CONTINUOUS
 62
     5
 10
43.7438748198174
 20
638.47385835429429
 30
0.0
  0
VERTEX
  8
DETAIL
  6
CONTINUOUS
 62
     5
 10
47.019861732927623
 20
639.01651894796748
 30
0.0
  0
VERTEX
  8
DETAIL
  6
CONTINUOUS
 62
     5
 10
50.313934115545869
 20
639.44081584096659
 30
0.0
  0
VERTEX
  8
DETAIL
  6
CONTINUOUS
 62
     5
 10
53.620895770905307
 20
639.74636947063084
 30
0.0
  0
VERTEX
  8
DETAIL
  6
CONTINUOUS
 62
     5
 10
56.935533073311731
 20
639.93281517262176
 30
0.0
  0
VERTEX
  8
DETAIL
  6
CONTINUOUS
 62
     5
 10
60.252632397071011
 20
639.99978828260066
 30
0.0
  0
SEQEND
  8
DETAIL
  6
CONTINUOUS
 62
     5
  0
POLYLINE
  8
DETAIL
  6
CONTINUOUS
 62
     5
 66
     1
 10
0.0
 20
0.0
 30
0.0
  0
VERTEX
  8
DETAIL
  6
CONTINUOUS
 62
     5
 10
316.830435733873
 20
636.14532373480074
 30
0.0
  0
VERTEX
  8
DETAIL
  6
CONTINUOUS
 62
     5
 10
313.63546960087007
 20
637.03702298523922
 30
0.0
  0
VERTEX
  8
DETAIL
  6
CONTINUOUS
 62
     5
 10
310.40930881647387
 20
637.81361678380267
 30
0.0
  0
VERTEX
  8
DETAIL
  6
CONTINUOUS
 62
     5
 10
307.15613329034795
 20
638.47385685052234
 30
0.0
  0
VERTEX
  8
DETAIL
  6
CONTINUOUS
 62
     5
 10
303.88014917297716
 20
639.01651733631184
 30
0.0
  0
VERTEX
  8
DETAIL
  6
CONTINUOUS
 62
     5
 10
300.58607960530998
 20
639.44081432002497
 30
0.0
  0
VERTEX
  8
DETAIL
  6
CONTINUOUS
 62
     5
 10
297.27912076905091
 20
639.74636823986452
 30
0.0
  0
VERTEX
  8
DETAIL
  6
CONTINUOUS
 62
     5
 10
293.96448627502878
 20
639.93281443259968
 30
0.0
  0
VERTEX
  8
DETAIL
  6
CONTINUOUS
 62
     5
 10
290.64738973407202
 20
639.99978823499964
 30
0.0
  0
SEQEND
  8
DETAIL
  6
CONTINUOUS
 62
     5
  0
POLYLINE
  8
DETAIL
  6
CONTINUOUS
 62
     5
 66
     1
 10
0.0
 20
0.0
 30
0.0
  0
VERTEX
  8
DETAIL
  6
CONTINUOUS
 62
     5
 10
290.64738973407202
 20
639.99978823499964
 30
0.0
  0
VERTEX
  8
DETAIL
  6
CONTINUOUS
 62
     5
 10
290.6004789390866
 20
640.00173030477049
 30
0.0
  0
VERTEX
  8
DETAIL
  6
CONTINUOUS
 62
     5
 10
290.55381226079402
 20
640.00733647070763
 30
0.0
  0
VERTEX
  8
DETAIL
  6
CONTINUOUS
 62
     5
 10
290.50772705202058
 20
640.01657745510852
 30
0.0
  0
VERTEX
  8
DETAIL
  6
CONTINUOUS
 62
     5
 10
290.46252518961541
 20
640.02939579070062
 30
0.0
  0
VERTEX
  8
DETAIL
  6
CONTINUOUS
 62
     5
 10
290.41847307457158
 20
640.04570582073745
 30
0.0
  0
VERTEX
  8
DETAIL
  6
CONTINUOUS
 62
     5
 10
290.37583282988027
 20
640.06541407901864
 30
0.0
  0
VERTEX
  8
DETAIL
  6
CONTINUOUS
 62
     5
 10
290.3348556362688
 20
640.08840076417596
 30
0.0
  0
VERTEX
  8
DETAIL
  6
CONTINUOUS
 62
     5
 10
290.29579015869348
 20
640.11453753332603
 30
0.0
  0
VERTEX
  8
DETAIL
  6
CONTINUOUS
 62
     5
 10
290.25889011697416
 20
640.14365101539136
 30
0.0
  0
VERTEX
  8
DETAIL
  6
CONTINUOUS
 62
     5
 10
290.22441428577167
 20
640.17552281130043
 30
0.0
  0
SEQEND
  8
DETAIL
  6
CONTINUOUS
 62
     5
  0
POLYLINE
  8
DETAIL
  6
CONTINUOUS
 62
     5
 66
     1
 10
0.0
 20
0.0
 30
0.0
  0
VERTEX
  8
DETAIL
  6
CONTINUOUS
 62
     5
 10
60.252632397071011
 20
639.99978828920007
 30
0.0
  0
VERTEX
  8
DETAIL
  6
CONTINUOUS
 62
     5
 10
60.299543131215636
 20
640.0017303287492
 30
0.0
  0
VERTEX
  8
DETAIL
  6
CONTINUOUS
 62
     5
 10
60.346209750006871
 20
640.00733647181573
 30
0.0
  0
VERTEX
  8
DETAIL
  6
CONTINUOUS
 62
     5
 10
60.392294898855233
 20
640.01657744029694
 30
0.0
  0
VERTEX
  8
DETAIL
  6
CONTINUOUS
 62
     5
 10
60.437496699670092
 20
640.02939576594292
 30
0.0
  0
VERTEX
  8
DETAIL
  6
CONTINUOUS
 62
     5
 10
60.481548750648628
 20
640.04570579052336
 30
0.0
  0
VERTEX
  8
DETAIL
  6
CONTINUOUS
 62
     5
 10
60.524188928188053
 20
640.06541404622874
 30
0.0
  0
VERTEX
  8
DETAIL
  6
CONTINUOUS
 62
     5
 10
60.565166051645441
 20
640.08840072976363
 30
0.0
  0
VERTEX
  8
DETAIL
  6
CONTINUOUS
 62
     5
 10
60.604231456335654
 20
640.11453749625991
 30
0.0
  0
VERTEX
  8
DETAIL
  6
CONTINUOUS
 62
     5
 10
60.641131423325106
 20
640.14365097270638
 30
0.0
  0
VERTEX
  8
DETAIL
  6
CONTINUOUS
 62
     5
 10
60.675607179471172
 20
640.17552275829962
 30
0.0
  0
SEQEND
  8
DETAIL
  6
CONTINUOUS
 62
     5
  0
CIRCLE
  8
ARRANGE
  6
CONTINUOUS
 62
     1
 10
0.0
 20
0.0
 30
0.0
 40
15.0
  0
CIRCLE
  8
FIX
  6
CONTINUOUS
 62
    11
 10
24.299999975271479
 20
0.0
 30
0.0
 40
3.0
  0
LINE
  8
BASIS
  6
CENTER
 62
     6
 10
24.299999975271479
 20
-9.2315979003897155
 30
0.0
 11
24.299999975271479
 21
10.20184326171897
 31
0.0
  0
CIRCLE
  8
FIX
  6
CONTINUOUS
 62
    11
 10
336.79999997527148
 20
0.0
 30
0.0
 40
3.0
  0
LINE
  8
BASIS
  6
CENTER
 62
     6
 10
336.79999997527148
 20
-9.2315979003897155
 30
0.0
 11
336.79999997527148
 21
10.20184326171897
 31
0.0
  0
LINE
  8
OUTLINE
  6
CONTINUOUS
 62
     3
 10
349.79999997527329
 20
0.0
 30
0.0
 11
258.69999997527202
 21
0.0
 31
0.0
  0
LINE
  8
OUTLINE
  6
CONTINUOUS
 62
     3
 10
92.899999975272735
 20
0.0
 30
0.0
 11
1.799999975271475
 21
0.0
 31
0.0
  0
LINE
  8
OUTLINE
  6
CONTINUOUS
 62
     3
 10
257.36547242977173
 20
3.0000000000006821
 30
0.0
 11
94.234527520773085
 21
3.0000000000006821
 31
0.0
  0
LINE
  8
OUTLINE
  6
CONTINUOUS
 62
     3
 10
111.7031170105724
 20
3.006045552000387
 30
0.0
 11
149.1901308507727
 21
3.0060459955996062
 31
0.0
  0
LINE
  8
OUTLINE
  6
CONTINUOUS
 62
     3
 10
239.44604659687229
 20
3.0060459445996912
 30
0.0
 11
257.36979033797297
 21
3.0060455100999661
 31
0.0
  0
LINE
  8
OUTLINE
  6
CONTINUOUS
 62
     3
 10
349.79999997527329
 20
3.600000000000136
 30
0.0
 11
312.9591433132714
 21
3.600000000000136
 31
0.0
  0
LINE
  8
OUTLINE
  6
CONTINUOUS
 62
     3
 10
38.640856637373417
 20
3.600000000000136
 30
0.0
 11
1.799999975271475
 21
3.600000000000136
 31
0.0
  0
LINE
  8
OUTLINE
  6
CONTINUOUS
 62
     3
 10
288.75147018347212
 20
641.64852753380069
 30
0.0
 11
290.22447547637279
 21
640.17552205960124
 31
0.0
  0
LINE
  8
OUTLINE
  6
CONTINUOUS
 62
     3
 10
320.39999997527281
 20
12.400000000000089
 30
0.0
 11
307.84677974910352
 21
12.400000000000089
 31
0.0
  0
LINE
  8
OUTLINE
  6
CONTINUOUS
 62
     3
 10
43.053220201542437
 20
12.400000000000089
 30
0.0
 11
30.499999975272662
 21
12.400000000000089
 31
0.0
  0
LINE
  8
OUTLINE
  6
CONTINUOUS
 62
     3
 10
330.4174530462729
 20
44.513601591900162
 30
0.0
 11
320.39999997527281
 21
44.426180603400091
 31
0.0
  0
LINE
  8
OUTLINE
  6
CONTINUOUS
 62
     3
 10
208.75147077547129
 20
641.64852919980035
 30
0.0
 11
210.2242625268718
 21
640.17573744840115
 31
0.0
  0
LINE
  8
OUTLINE
  6
CONTINUOUS
 62
     3
 10
127.851470775472
 20
641.64852919980035
 30
0.0
 11
129.32426252687259
 21
640.17573744840115
 31
0.0
  0
LINE
  8
OUTLINE
  6
CONTINUOUS
 62
     3
 10
332.3999999752732
 20
46.513525438000443
 30
0.0
 11
332.3999999752732
 21
248.60000000002881
 31
0.0
  0
LINE
  8
OUTLINE
  6
CONTINUOUS
 62
     3
 10
332.3999999752732
 20
378.19999999997179
 30
0.0
 11
332.3999999752732
 21
580.28647456190015
 31
0.0
  0
LINE
  8
OUTLINE
  6
CONTINUOUS
 62
     3
 10
320.39999997527281
 20
631.35430572810014
 30
0.0
 11
320.39999997527229
 21
582.3738193966002
 31
0.0
  0
LINE
  8
OUTLINE
  6
CONTINUOUS
 62
     3
 10
320.39999997527229
 20
44.426180603399871
 30
0.0
 11
320.39999997527281
 21
12.400000000000089
 31
0.0
  0
LINE
  8
OUTLINE
  6
CONTINUOUS
 62
     3
 10
39.506882041173412
 20
4.0999999999996808
 30
0.0
 11
43.897745353772272
 21
11.70519834660012
 31
0.0
  0
LINE
  8
OUTLINE
  6
CONTINUOUS
 62
     3
 10
307.45898442884891
 20
12.12655463747523
 30
0.0
 11
312.0931179094714
 21
4.0999999999996808
 31
0.0
  0
LINE
  8
OUTLINE
  6
CONTINUOUS
 62
     3
 10
21.99999997527129
 20
559.51309296080012
 30
0.0
 11
22.199999975273389
 21
558.79999999999995
 31
0.0
  0
LINE
  8
OUTLINE
  6
CONTINUOUS
 62
     3
 10
30.499999975272662
 20
631.35430572810014
 30
0.0
 11
30.499999975272662
 21
614.70948737253343
 31
0.0
  0
LINE
  8
OUTLINE
  6
CONTINUOUS
 62
     3
 10
30.499999975272662
 20
559.70948737250069
 30
0.0
 11
30.499999975272662
 21
12.400000000000089
 31
0.0
  0
LINE
  8
OUTLINE
  6
CONTINUOUS
 62
     3
 10
7.4999999752731119
 20
559.89278881620044
 30
0.0
 11
7.4999999752731119
 21
610.4971981820006
 31
0.0
  0
LINE
  8
OUTLINE
  6
CONTINUOUS
 62
     3
 10
223.04853129977121
 20
641.64852670920004
 30
0.0
 11
221.57574045797219
 21
640.1757345971007
 31
0.0
  0
LINE
  8
OUTLINE
  6
CONTINUOUS
 62
     3
 10
22.79999997527284
 20
558.79999999999995
 30
0.0
 11
22.999999975272662
 21
559.51309296080012
 31
0.0
  0
LINE
  8
OUTLINE
  6
CONTINUOUS
 62
     3
 10
21.99999997527539
 20
559.51309296078318
 30
0.0
 11
7.4999999752731119
 21
559.8927888235005
 31
0.0
  0
LINE
  8
OUTLINE
  6
CONTINUOUS
 62
     3
 10
22.199999975273389
 20
558.79999999999995
 30
0.0
 11
22.79999997527284
 21
558.79999999999995
 31
0.0
  0
LINE
  8
OUTLINE
  6
CONTINUOUS
 62
     3
 10
30.499999975272662
 20
559.70948737250069
 30
0.0
 11
22.99999997526675
 21
559.51309296078136
 31
0.0
  0
LINE
  8
OUTLINE
  6
CONTINUOUS
 62
     3
 10
330.4174530462729
 20
582.28639840810024
 30
0.0
 11
320.39999997527281
 21
582.37381939660065
 31
0.0
  0
LINE
  8
OUTLINE
  6
CONTINUOUS
 62
     3
 10
142.148531299772
 20
641.64852670920004
 30
0.0
 11
140.67574045797301
 21
640.1757345971007
 31
0.0
  0
LINE
  8
OUTLINE
  6
CONTINUOUS
 62
     3
 10
43.774516575672351
 20
11.828427124700051
 30
0.0
 11
43.897745353772272
 21
11.70519834660012
 31
0.0
  0
LINE
  8
OUTLINE
  6
CONTINUOUS
 62
     3
 10
129.74852222717121
 20
639.99999999999966
 30
0.0
 11
140.2514718378734
 21
639.99999999999966
 31
0.0
  0
LINE
  8
OUTLINE
  6
CONTINUOUS
 62
     3
 10
210.6485251699464
 20
640.00000000000739
 30
0.0
 11
221.1514777234311
 21
640.00000000002967
 31
0.0
  0
LINE
  8
OUTLINE
  6
CONTINUOUS
 62
     3
 10
30.499999975272662
 20
614.70948737253343
 30
0.0
 11
22.499999975273109
 21
614.50000000000057
 31
0.0
  0
LINE
  8
OUTLINE
  6
CONTINUOUS
 62
     3
 10
62.14853103927225
 20
641.64852703379995
 30
0.0
 11
60.67552603137301
 21
640.17552158139983
 31
0.0
  0
LINE
  8
OUTLINE
  6
CONTINUOUS
 62
     3
 10
287.90294257147252
 20
642.00000000000068
 30
0.0
 11
223.8970585578727
 21
642.00000000000068
 31
0.0
  0
LINE
  8
OUTLINE
  6
CONTINUOUS
 62
     3
 10
207.90294139277191
 20
642.00000000000068
 30
0.0
 11
142.99705855787121
 21
642.00000000000068
 31
0.0
  0
LINE
  8
OUTLINE
  6
CONTINUOUS
 62
     3
 10
127.0029413927727
 20
642.00000000000068
 30
0.0
 11
62.997058265173102
 21
642.00000000000068
 31
0.0
  0
LINE
  8
OUTLINE
  6
CONTINUOUS
 62
     3
 10
22.499999975273109
 20
614.50000000000057
 30
0.0
 11
7.5002472566734459
 21
610.48082837240031
 31
0.0
  0
ARC
  8
OUTLINE
  6
CONTINUOUS
 62
     3
 10
312.9591433132714
 20
4.6000000000003629
 30
0.0
 40
1.0
 50
209.99999999998269
 51
270.0
  0
ARC
  8
OUTLINE
  6
CONTINUOUS
 62
     3
 10
349.79999997527329
 20
1.7999999999994989
 30
0.0
 40
1.8
 50
269.98100585586508
 51
90.0
  0
ARC
  8
OUTLINE
  6
CONTINUOUS
 62
     3
 10
258.69999997527202
 20
1.7999999999994989
 30
0.0
 40
1.8
 50
137.9309837773915
 51
270.0
  0
ARC
  8
OUTLINE
  6
CONTINUOUS
 62
     3
 10
38.640856637373417
 20
4.6000000000003629
 30
0.0
 40
1.0
 50
270.0
 51
330.00000000001722
  0
ARC
  8
OUTLINE
  6
CONTINUOUS
 62
     3
 10
92.899999975272735
 20
1.7999999999994989
 30
0.0
 40
1.8
 50
270.0
 51
41.810314895839419
  0
ARC
  8
OUTLINE
  6
CONTINUOUS
 62
     3
 10
1.799999975271475
 20
1.7999999999994989
 30
0.0
 40
1.8
 50
90.0
 51
270.01899414413469
  0
ARC
  8
OUTLINE
  6
CONTINUOUS
 62
     3
 10
221.15147183787261
 20
640.60000000000048
 30
0.0
 40
0.6
 50
270.00056202943631
 51
315.00020488512342
  0
ARC
  8
OUTLINE
  6
CONTINUOUS
 62
     3
 10
35.499999975272658
 20
631.35430545310078
 30
0.0
 40
5.0
 50
106.6238429244615
 51
179.99999684876539
  0
ARC
  8
OUTLINE
  6
CONTINUOUS
 62
     3
 10
315.39999997527269
 20
631.35430563610021
 30
0.0
 40
5.0
 50
0.0000010537986793
 51
73.376156475529527
  0
ARC
  8
OUTLINE
  6
CONTINUOUS
 62
     3
 10
290.64873895227271
 20
640.59978672129967
 30
0.0
 40
0.6
 50
225.00008007120749
 51
269.87714442984202
  0
ARC
  8
OUTLINE
  6
CONTINUOUS
 62
     3
 10
140.2514718378734
 20
640.60000000000048
 30
0.0
 40
0.6
 50
270.0
 51
315.00020488512342
  0
ARC
  8
OUTLINE
  6
CONTINUOUS
 62
     3
 10
210.64852222717261
 20
640.60000000000048
 30
0.0
 40
0.6
 50
225.00019253129591
 51
270.00028101419713
  0
ARC
  8
OUTLINE
  6
CONTINUOUS
 62
     3
 10
60.251263038071549
 20
640.59978672569991
 30
0.0
 40
0.6
 50
270.12275755047551
 51
314.99985475412808
  0
ARC
  8
OUTLINE
  6
CONTINUOUS
 62
     3
 10
129.74852222717121
 20
640.60000000000048
 30
0.0
 40
0.6
 50
225.00019253129591
 51
270.00028101419713
  0
ARC
  8
OUTLINE
  6
CONTINUOUS
 62
     3
 10
223.89705625017311
 20
640.8000000000003
 30
0.0
 40
1.1999999999999991
 50
89.999889816248341
 51
134.9999282650837
  0
ARC
  8
OUTLINE
  6
CONTINUOUS
 62
     3
 10
287.90294144237117
 20
640.8000000000003
 30
0.0
 40
1.1999999999999991
 50
44.999959238781813
 51
89.999946093448997
  0
ARC
  8
OUTLINE
  6
CONTINUOUS
 62
     3
 10
142.99705625017171
 20
640.8000000000003
 30
0.0
 40
1.1999999999999991
 50
89.999889816248341
 51
134.9999282650837
  0
ARC
  8
OUTLINE
  6
CONTINUOUS
 62
     3
 10
207.9029390850724
 20
640.8000000000003
 30
0.0
 40
1.1999999999999991
 50
44.999903559879208
 51
89.999889816769439
  0
ARC
  8
OUTLINE
  6
CONTINUOUS
 62
     3
 10
62.997056250171681
 20
640.8000000000003
 30
0.0
 40
1.1999999999999991
 50
89.99990378855837
 51
134.9999341299407
  0
ARC
  8
OUTLINE
  6
CONTINUOUS
 62
     3
 10
127.00293908507319
 20
640.8000000000003
 30
0.0
 40
1.1999999999999991
 50
44.999903559879208
 51
89.999889816769439
  0
ARC
  8
OUTLINE
  6
CONTINUOUS
 62
     3
 10
309.95391049967338
 20
8.9999999999997726
 30
0.0
 40
4.0
 50
121.65387598933449
 51
128.58914467281619
  0
ARC
  8
OUTLINE
  6
CONTINUOUS
 62
     3
 10
40.94608945097206
 20
8.9999999999997726
 30
0.0
 40
4.0
 50
45.000000000064468
 51
58.346124010665513
  0
ARC
  8
OUTLINE
  6
CONTINUOUS
 62
     3
 10
330.39999997527269
 20
46.513525438000443
 30
0.0
 40
2.0
 50
270.49999999996538
 51
0.0
  0
ARC
  8
OUTLINE
  6
CONTINUOUS
 62
     3
 10
-1766.620000024727
 20
313.40000000000032
 30
0.0
 40
2100.02
 50
358.23175210372477
 51
1.7682478962752679
  0
ARC
  8
OUTLINE
  6
CONTINUOUS
 62
     3
 10
330.39999997527269
 20
580.28647456190015
 30
0.0
 40
2.0
 50
0.0
 51
89.500000000034476
  0
POLYLINE
  8
OUTLINE
  6
CONTINUOUS
 62
     3
 66
     1
 10
0.0
 20
0.0
 30
0.0
  0
VERTEX
  8
OUTLINE
  6
CONTINUOUS
 62
     3
 10
316.83043573397299
 20
636.14532373480074
 30
0.0
  0
VERTEX
  8
OUTLINE
  6
CONTINUOUS
 62
     3
 10
316.10255646468391
 20
636.35938591762147
 30
0.0
  0
VERTEX
  8
OUTLINE
  6
CONTINUOUS
 62
     3
 10
315.37287936462224
 20
636.56747104486521
 30
0.0
  0
VERTEX
  8
OUTLINE
  6
CONTINUOUS
 62
     3
 10
314.64147892384938
 20
636.76955990146007
 30
0.0
  0
VERTEX
  8
OUTLINE
  6
CONTINUOUS
 62
     3
 10
313.90842963242665
 20
636.96563327233332
 30
0.0
  0
VERTEX
  8
OUTLINE
  6
CONTINUOUS
 62
     3
 10
313.17380598041547
 20
637.1556719424126
 30
0.0
  0
VERTEX
  8
OUTLINE
  6
CONTINUOUS
 62
     3
 10
312.43768245787714
 20
637.33965669662575
 30
0.0
  0
VERTEX
  8
OUTLINE
  6
CONTINUOUS
 62
     3
 10
311.70013355487299
 20
637.51756831990065
 30
0.0
  0
SEQEND
  8
OUTLINE
  6
CONTINUOUS
 62
     3
  0
POLYLINE
  8
OUTLINE
  6
CONTINUOUS
 62
     3
 66
     1
 10
0.0
 20
0.0
 30
0.0
  0
VERTEX
  8
OUTLINE
  6
CONTINUOUS
 62
     3
 10
311.70013355487299
 20
637.51756831990065
 30
0.0
  0
VERTEX
  8
OUTLINE
  6
CONTINUOUS
 62
     3
 10
310.96114711511478
 20
637.68940836414151
 30
0.0
  0
VERTEX
  8
OUTLINE
  6
CONTINUOUS
 62
     3
 10
310.22070982395053
 20
637.85517965457996
 30
0.0
  0
VERTEX
  8
OUTLINE
  6
CONTINUOUS
 62
     3
 10
309.47889668729556
 20
638.01486435233483
 30
0.0
  0
VERTEX
  8
OUTLINE
  6
CONTINUOUS
 62
     3
 10
308.73578271106499
 20
638.16844461852531
 30
0.0
  0
VERTEX
  8
OUTLINE
  6
CONTINUOUS
 62
     3
 10
307.99144290117408
 20
638.31590261427039
 30
0.0
  0
VERTEX
  8
OUTLINE
  6
CONTINUOUS
 62
     3
 10
307.24595226353824
 20
638.45722050068912
 30
0.0
  0
VERTEX
  8
OUTLINE
  6
CONTINUOUS
 62
     3
 10
306.49938580407252
 20
638.59238043890059
 30
0.0
  0
SEQEND
  8
OUTLINE
  6
CONTINUOUS
 62
     3
  0
POLYLINE
  8
OUTLINE
  6
CONTINUOUS
 62
     3
 66
     1
 10
0.0
 20
0.0
 30
0.0
  0
VERTEX
  8
OUTLINE
  6
CONTINUOUS
 62
     3
 10
306.49938580407252
 20
638.59238043890059
 30
0.0
  0
VERTEX
  8
OUTLINE
  6
CONTINUOUS
 62
     3
 10
305.8452430834447
 20
638.70559416826177
 30
0.0
  0
VERTEX
  8
OUTLINE
  6
CONTINUOUS
 62
     3
 10
305.19027355128384
 20
638.81408897819199
 30
0.0
  0
VERTEX
  8
OUTLINE
  6
CONTINUOUS
 62
     3
 10
304.53450292103008
 20
638.91786088582478
 30
0.0
  0
VERTEX
  8
OUTLINE
  6
CONTINUOUS
 62
     3
 10
303.87797977151524
 20
639.01690498208563
 30
0.0
  0
VERTEX
  8
OUTLINE
  6
CONTINUOUS
 62
     3
 10
303.22075304106568
 20
639.11121634333938
 30
0.0
  0
VERTEX
  8
OUTLINE
  6
CONTINUOUS
 62
     3
 10
302.5628716680078
 20
639.20079004595016
 30
0.0
  0
VERTEX
  8
OUTLINE
  6
CONTINUOUS
 62
     3
 10
301.90438459066814
 20
639.28562116628245
 30
0.0
  0
VERTEX
  8
OUTLINE
  6
CONTINUOUS
 62
     3
 10
301.24534074737312
 20
639.36570478070075
 30
0.0
  0
SEQEND
  8
OUTLINE
  6
CONTINUOUS
 62
     3
  0
POLYLINE
  8
OUTLINE
  6
CONTINUOUS
 62
     3
 66
     1
 10
0.0
 20
0.0
 30
0.0
  0
VERTEX
  8
OUTLINE
  6
CONTINUOUS
 62
     3
 10
301.24534074737312
 20
639.36570478070075
 30
0.0
  0
VERTEX
  8
OUTLINE
  6
CONTINUOUS
 62
     3
 10
300.49149443858761
 20
639.45141335680273
 30
0.0
  0
VERTEX
  8
OUTLINE
  6
CONTINUOUS
 62
     3
 10
299.73690503007879
 20
639.53092615997389
 30
0.0
  0
VERTEX
  8
OUTLINE
  6
CONTINUOUS
 62
     3
 10
298.98164916158049
 20
639.60423668979831
 30
0.0
  0
VERTEX
  8
OUTLINE
  6
CONTINUOUS
 62
     3
 10
298.22580347282678
 20
639.67133844585942
 30
0.0
  0
VERTEX
  8
OUTLINE
  6
CONTINUOUS
 62
     3
 10
297.46944460355155
 20
639.73222492774096
 30
0.0
  0
VERTEX
  8
OUTLINE
  6
CONTINUOUS
 62
     3
 10
296.7126491934888
 20
639.78688963502657
 30
0.0
  0
VERTEX
  8
OUTLINE
  6
CONTINUOUS
 62
     3
 10
295.95549388237259
 20
639.83532606729989
 30
0.0
  0
SEQEND
  8
OUTLINE
  6
CONTINUOUS
 62
     3
  0
POLYLINE
  8
OUTLINE
  6
CONTINUOUS
 62
     3
 66
     1
 10
0.0
 20
0.0
 30
0.0
  0
VERTEX
  8
OUTLINE
  6
CONTINUOUS
 62
     3
 10
295.95549388237259
 20
639.83532606729989
 30
0.0
  0
VERTEX
  8
OUTLINE
  6
CONTINUOUS
 62
     3
 10
295.1979656892056
 20
639.87753331299461
 30
0.0
  0
VERTEX
  8
OUTLINE
  6
CONTINUOUS
 62
     3
 10
294.4400516969028
 20
639.9135114343768
 30
0.0
  0
VERTEX
  8
OUTLINE
  6
CONTINUOUS
 62
     3
 10
293.68182890505642
 20
639.94325537597251
 30
0.0
  0
VERTEX
  8
OUTLINE
  6
CONTINUOUS
 62
     3
 10
292.92337431325819
 20
639.96676008230725
 30
0.0
  0
VERTEX
  8
OUTLINE
  6
CONTINUOUS
 62
     3
 10
292.16476492110013
 20
639.98402049790627
 30
0.0
  0
VERTEX
  8
OUTLINE
  6
CONTINUOUS
 62
     3
 10
291.40607772817413
 20
639.9950315672952
 30
0.0
  0
VERTEX
  8
OUTLINE
  6
CONTINUOUS
 62
     3
 10
290.64738973407202
 20
639.99978823499964
 30
0.0
  0
SEQEND
  8
OUTLINE
  6
CONTINUOUS
 62
     3
  0
POLYLINE
  8
OUTLINE
  6
CONTINUOUS
 62
     3
 66
     1
 10
0.0
 20
0.0
 30
0.0
  0
VERTEX
  8
OUTLINE
  6
CONTINUOUS
 62
     3
 10
34.069564216672461
 20
636.14532373480074
 30
0.0
  0
VERTEX
  8
OUTLINE
  6
CONTINUOUS
 62
     3
 10
37.264533023976853
 20
637.03702368037
 30
0.0
  0
VERTEX
  8
OUTLINE
  6
CONTINUOUS
 62
     3
 10
40.490696530690229
 20
637.81361798119735
 30
0.0
  0
VERTEX
  8
OUTLINE
  6
CONTINUOUS
 62
     3
 10
43.743874819818224
 20
638.47385835429441
 30
0.0
  0
VERTEX
  8
OUTLINE
  6
CONTINUOUS
 62
     3
 10
47.019861732928746
 20
639.01651894796748
 30
0.0
  0
VERTEX
  8
OUTLINE
  6
CONTINUOUS
 62
     3
 10
50.313934115547283
 20
639.44081584096659
 30
0.0
  0
VERTEX
  8
OUTLINE
  6
CONTINUOUS
 62
     3
 10
53.620895770906984
 20
639.74636947063084
 30
0.0
  0
VERTEX
  8
OUTLINE
  6
CONTINUOUS
 62
     3
 10
56.935533073313707
 20
639.93281517262176
 30
0.0
  0
VERTEX
  8
OUTLINE
  6
CONTINUOUS
 62
     3
 10
60.252632397073278
 20
639.99978828260066
 30
0.0
  0
SEQEND
  8
OUTLINE
  6
CONTINUOUS
 62
     3
  0
POLYLINE
  8
OUTLINE
  6
CONTINUOUS
 62
     3
 66
     1
 10
0.0
 20
0.0
 30
0.0
  0
VERTEX
  8
OUTLINE
  6
CONTINUOUS
 62
     3
 10
60.252632397073278
 20
639.99978828260066
 30
0.0
  0
VERTEX
  8
OUTLINE
  6
CONTINUOUS
 62
     3
 10
60.299543122441158
 20
640.0017303440892
 30
0.0
  0
VERTEX
  8
OUTLINE
  6
CONTINUOUS
 62
     3
 10
60.346209730817655
 20
640.00733650772952
 30
0.0
  0
VERTEX
  8
OUTLINE
  6
CONTINUOUS
 62
     3
 10
60.392294867809412
 20
640.01657749523497
 30
0.0
  0
VERTEX
  8
OUTLINE
  6
CONTINUOUS
 62
     3
 10
60.437496655513812
 20
640.0293958382357
 30
0.0
  0
VERTEX
  8
OUTLINE
  6
CONTINUOUS
 62
     3
 10
60.481548692307548
 20
640.04570587844648
 30
0.0
  0
VERTEX
  8
OUTLINE
  6
CONTINUOUS
 62
     3
 10
60.524188854767857
 20
640.06541414800847
 30
0.0
  0
VERTEX
  8
OUTLINE
  6
CONTINUOUS
 62
     3
 10
60.565165962435465
 20
640.08840084358906
 30
0.0
  0
VERTEX
  8
OUTLINE
  6
CONTINUOUS
 62
     3
 10
60.604231350810522
 20
640.114537620286
 30
0.0
  0
VERTEX
  8
OUTLINE
  6
CONTINUOUS
 62
     3
 10
60.641131301163206
 20
640.14365110508311
 30
0.0
  0
VERTEX
  8
OUTLINE
  6
CONTINUOUS
 62
     3
 10
60.675607040573141
 20
640.17552289720027
 30
0.0
  0
SEQEND
  8
OUTLINE
  6
CONTINUOUS
 62
     3
  0
POLYLINE
  8
OUTLINE
  6
CONTINUOUS
 62
     3
 66
     1
 10
0.0
 20
0.0
 30
0.0
  0
VERTEX
  8
OUTLINE
  6
CONTINUOUS
 62
     3
 10
111.70311688577161
 20
3.006045552000387
 30
0.0
  0
VERTEX
  8
OUTLINE
  6
CONTINUOUS
 62
     3
 10
111.6822923822954
 20
3.0054708324524908
 30
0.0
  0
VERTEX
  8
OUTLINE
  6
CONTINUOUS
 62
     3
 10
111.66146531792438
 20
3.0049798045692322
 30
0.0
  0
VERTEX
  8
OUTLINE
  6
CONTINUOUS
 62
     3
 10
111.64063619683922
 20
3.0045724433785534
 30
0.0
  0
VERTEX
  8
OUTLINE
  6
CONTINUOUS
 62
     3
 10
111.61980552322072
 20
3.0042487239083946
 30
0.0
  0
VERTEX
  8
OUTLINE
  6
CONTINUOUS
 62
     3
 10
111.59897380124951
 20
3.0040086211866979
 30
0.0
  0
VERTEX
  8
OUTLINE
  6
CONTINUOUS
 62
     3
 10
111.57814153510634
 20
3.0038521102414046
 30
0.0
  0
VERTEX
  8
OUTLINE
  6
CONTINUOUS
 62
     3
 10
111.5573092289719
 20
3.0037791661004571
 30
0.0
  0
SEQEND
  8
OUTLINE
  6
CONTINUOUS
 62
     3
  0
POLYLINE
  8
OUTLINE
  6
CONTINUOUS
 62
     3
 66
     1
 10
0.0
 20
0.0
 30
0.0
  0
VERTEX
  8
OUTLINE
  6
CONTINUOUS
 62
     3
 10
111.5573092289719
 20
3.0037791661004571
 30
0.0
  0
VERTEX
  8
OUTLINE
  6
CONTINUOUS
 62
     3
 10
111.55458760884463
 20
3.0037758068863885
 30
0.0
  0
VERTEX
  8
OUTLINE
  6
CONTINUOUS
 62
     3
 10
111.55186598639773
 20
3.0037738733887025
 30
0.0
  0
VERTEX
  8
OUTLINE
  6
CONTINUOUS
 62
     3
 10
111.54914436275132
 20
3.0037733655546619
 30
0.0
  0
VERTEX
  8
OUTLINE
  6
CONTINUOUS
 62
     3
 10
111.54642273902542
 20
3.0037742833315253
 30
0.0
  0
VERTEX
  8
OUTLINE
  6
CONTINUOUS
 62
     3
 10
111.54370111634015
 20
3.003776626666554
 30
0.0
  0
VERTEX
  8
OUTLINE
  6
CONTINUOUS
 62
     3
 10
111.54097949581549
 20
3.0037803955070066
 30
0.0
  0
VERTEX
  8
OUTLINE
  6
CONTINUOUS
 62
     3
 10
111.5382578785716
 20
3.0037855898001449
 30
0.0
  0
SEQEND
  8
OUTLINE
  6
CONTINUOUS
 62
     3
  0
POLYLINE
  8
OUTLINE
  6
CONTINUOUS
 62
     3
 66
     1
 10
0.0
 20
0.0
 30
0.0
  0
VERTEX
  8
OUTLINE
  6
CONTINUOUS
 62
     3
 10
239.5307251399731
 20
3.0000000000006821
 30
0.0
  0
VERTEX
  8
OUTLINE
  6
CONTINUOUS
 62
     3
 10
239.520103669939
 20
3.0000951083150889
 30
0.0
  0
VERTEX
  8
OUTLINE
  6
CONTINUOUS
 62
     3
 10
239.50948432391817
 20
3.0003801609846601
 30
0.0
  0
VERTEX
  8
OUTLINE
  6
CONTINUOUS
 62
     3
 10
239.49887092066851
 20
3.000854749598926
 30
0.0
  0
VERTEX
  8
OUTLINE
  6
CONTINUOUS
 62
     3
 10
239.48826727894786
 20
3.0015184657472949
 30
0.0
  0
VERTEX
  8
OUTLINE
  6
CONTINUOUS
 62
     3
 10
239.47767717665474
 20
3.0023707337317043
 30
0.0
  0
VERTEX
  8
OUTLINE
  6
CONTINUOUS
 62
     3
 10
239.4671042326064
 20
3.0034103265375935
 30
0.0
  0
VERTEX
  8
OUTLINE
  6
CONTINUOUS
 62
     3
 10
239.45655202690995
 20
3.004635858661433
 30
0.0
  0
VERTEX
  8
OUTLINE
  6
CONTINUOUS
 62
     3
 10
239.44602413967229
 20
3.0060459445996912
 30
0.0
  0
SEQEND
  8
OUTLINE
  6
CONTINUOUS
 62
     3
  0
POLYLINE
  8
OUTLINE
  6
CONTINUOUS
 62
     3
 66
     1
 10
0.0
 20
0.0
 30
0.0
  0
VERTEX
  8
OUTLINE
  6
CONTINUOUS
 62
     3
 10
111.55685422487289
 20
3.0000000000006821
 30
0.0
  0
VERTEX
  8
OUTLINE
  6
CONTINUOUS
 62
     3
 10
111.56905122389908
 20
3.0000420223226811
 30
0.0
  0
VERTEX
  8
OUTLINE
  6
CONTINUOUS
 62
     3
 10
111.58124786108262
 20
3.0001680745110337
 30
0.0
  0
VERTEX
  8
OUTLINE
  6
CONTINUOUS
 62
     3
 10
111.59344348520867
 20
3.000378134399277
 30
0.0
  0
VERTEX
  8
OUTLINE
  6
CONTINUOUS
 62
     3
 10
111.60563744506224
 20
3.0006721798209472
 30
0.0
  0
VERTEX
  8
OUTLINE
  6
CONTINUOUS
 62
     3
 10
111.61782909021167
 20
3.0010501796486238
 30
0.0
  0
VERTEX
  8
OUTLINE
  6
CONTINUOUS
 62
     3
 10
111.63001777334918
 20
3.0015120670184907
 30
0.0
  0
VERTEX
  8
OUTLINE
  6
CONTINUOUS
 62
     3
 10
111.64220284794548
 20
3.0020577661593997
 30
0.0
  0
VERTEX
  8
OUTLINE
  6
CONTINUOUS
 62
     3
 10
111.65438366747139
 20
3.0026872013002039
 30
0.0
  0
SEQEND
  8
OUTLINE
  6
CONTINUOUS
 62
     3
  0
POLYLINE
  8
OUTLINE
  6
CONTINUOUS
 62
     3
 66
     1
 10
0.0
 20
0.0
 30
0.0
  0
VERTEX
  8
OUTLINE
  6
CONTINUOUS
 62
     3
 10
111.65438366747139
 20
3.0026872013002039
 30
0.0
  0
VERTEX
  8
OUTLINE
  6
CONTINUOUS
 62
     3
 10
111.66135080231867
 20
3.0030849643411428
 30
0.0
  0
VERTEX
  8
OUTLINE
  6
CONTINUOUS
 62
     3
 10
111.6683164545763
 20
3.0035101034579261
 30
0.0
  0
VERTEX
  8
OUTLINE
  6
CONTINUOUS
 62
     3
 10
111.67528046449435
 20
3.0039625932740073
 30
0.0
  0
VERTEX
  8
OUTLINE
  6
CONTINUOUS
 62
     3
 10
111.68224267232287
 20
3.00444240841284
 30
0.0
  0
VERTEX
  8
OUTLINE
  6
CONTINUOUS
 62
     3
 10
111.68920291831188
 20
3.0049495234978787
 30
0.0
  0
VERTEX
  8
OUTLINE
  6
CONTINUOUS
 62
     3
 10
111.69616104271142
 20
3.0054839131525757
 30
0.0
  0
VERTEX
  8
OUTLINE
  6
CONTINUOUS
 62
     3
 10
111.70311688577161
 20
3.006045552000387
 30
0.0
  0
SEQEND
  8
OUTLINE
  6
CONTINUOUS
 62
     3
  0
POLYLINE
  8
OUTLINE
  6
CONTINUOUS
 62
     3
 66
     1
 10
0.0
 20
0.0
 30
0.0
  0
VERTEX
  8
OUTLINE
  6
CONTINUOUS
 62
     3
 10
239.44604659687229
 20
3.0060459445996912
 30
0.0
  0
VERTEX
  8
OUTLINE
  6
CONTINUOUS
 62
     3
 10
239.45812178617552
 20
3.0062612171216267
 30
0.0
  0
VERTEX
  8
OUTLINE
  6
CONTINUOUS
 62
     3
 10
239.47019696892258
 20
3.0064768578836341
 30
0.0
  0
VERTEX
  8
OUTLINE
  6
CONTINUOUS
 62
     3
 10
239.48227214508637
 20
3.0066928674401483
 30
0.0
  0
VERTEX
  8
OUTLINE
  6
CONTINUOUS
 62
     3
 10
239.49434731464007
 20
3.0069092463456113
 30
0.0
  0
VERTEX
  8
OUTLINE
  6
CONTINUOUS
 62
     3
 10
239.50642247755675
 20
3.00712599515446
 30
0.0
  0
VERTEX
  8
OUTLINE
  6
CONTINUOUS
 62
     3
 10
239.51849763380957
 20
3.0073431144211353
 30
0.0
  0
VERTEX
  8
OUTLINE
  6
CONTINUOUS
 62
     3
 10
239.5305727833715
 20
3.0075606047000738
 30
0.0
  0
SEQEND
  8
OUTLINE
  6
CONTINUOUS
 62
     3
  0
ENDSEC
  0
EOF
