  0
SECTION
  2
HEADER
  9
$ACADVER
  1
AC1009
  9
$DWGCODEPAGE
  3
dos932
  9
$INSBASE
 10
0.0
 20
0.0
 30
0.0
  9
$EXTMIN
 10
-924.24970096504148
 20
-807.01679005239475
 30
-0.0000000000112498
  9
$EXTMAX
 10
917.26992940138734
 20
388.0295854746073
 30
0.0000000000002956
  9
$LIMMIN
 10
0.0000014455781638
 20
-0.0000031812703583
  9
$LIMMAX
 10
5940.0000014455791
 20
4199.9999968187294
  9
$ORTHOMODE
 70
     0
  9
$REGENMODE
 70
     1
  9
$FILLMODE
 70
     1
  9
$QTEXTMODE
 70
     0
  9
$MIRRTEXT
 70
     1
  9
$LTSCALE
 40
10.0
  9
$ATTMODE
 70
     1
  9
$TEXTSIZE
 40
2.5
  9
$TRACEWID
 40
1.0
  9
$TEXTSTYLE
  7
STYLE1
  9
$CLAYER
  8
SIZE
  9
$CELTYPE
  6
ByLayer
  9
$CECOLOR
 62
    30
  9
$DIMSCALE
 40
10.0
  9
$DIMASZ
 40
1.0
  9
$DIMEXO
 40
0.0
  9
$DIMDLI
 40
12.0
  9
$DIMRND
 40
0.0
  9
$DIMDLE
 40
0.0
  9
$DIMEXE
 40
2.0
  9
$DIMTP
 40
0.1
  9
$DIMTM
 40
0.1
  9
$DIMTXT
 40
4.0
  9
$DIMCEN
 40
0.0
  9
$DIMTSZ
 40
0.0
  9
$DIMTOL
 70
     0
  9
$DIMLIM
 70
     0
  9
$DIMTIH
 70
     0
  9
$DIMTOH
 70
     0
  9
$DIMSE1
 70
     0
  9
$DIMSE2
 70
     0
  9
$DIMTAD
 70
     3
  9
$DIMZIN
 70
     8
  9
$DIMBLK
  1

  9
$DIMASO
 70
     1
  9
$DIMSHO
 70
     1
  9
$DIMPOST
  1

  9
$DIMAPOST
  1
"
  9
$DIMALT
 70
     0
  9
$DIMALTD
 70
     2
  9
$DIMALTF
 40
0.0393701
  9
$DIMLFAC
 40
1.0
  9
$DIMTOFL
 70
     1
  9
$DIMTVP
 40
0.0
  9
$DIMTIX
 70
     0
  9
$DIMSOXD
 70
     0
  9
$DIMSAH
 70
     0
  9
$DIMBLK1
  1

  9
$DIMBLK2
  1

  9
$DIMSTYLE
  2
MHIJIS
  9
$DIMCLRD
 70
     3
  9
$DIMCLRE
 70
     3
  9
$DIMCLRT
 70
     3
  9
$DIMTFAC
 40
0.71
  9
$DIMGAP
 40
1.0
  9
$LUNITS
 70
     2
  9
$LUPREC
 70
     4
  9
$SKETCHINC
 40
1.0
  9
$FILLETRAD
 40
0.0
  9
$AUNITS
 70
     0
  9
$AUPREC
 70
     0
  9
$MENU
  1
.
  9
$ELEVATION
 40
0.0
  9
$PELEVATION
 40
0.0
  9
$THICKNESS
 40
0.0
  9
$LIMCHECK
 70
     0
  9
$CHAMFERA
 40
0.0
  9
$CHAMFERB
 40
0.0
  9
$SKPOLY
 70
     0
  9
$TDCREATE
 40
2454511.500316863
  9
$TDUPDATE
 40
2457701.648718912
  9
$TDINDWG
 40
0.2551659144
  9
$TDUSRTIMER
 40
0.2551659144
  9
$USRTIMER
 70
     1
  9
$ANGBASE
 50
0.0
  9
$ANGDIR
 70
     0
  9
$PDMODE
 70
     0
  9
$PDSIZE
 40
0.0
  9
$PLINEWID
 40
0.0
  9
$SPLFRAME
 70
     0
  9
$SPLINETYPE
 70
     6
  9
$SPLINESEGS
 70
     8
  9
$SURFTAB1
 70
     6
  9
$SURFTAB2
 70
     6
  9
$SURFTYPE
 70
     6
  9
$SURFU
 70
     6
  9
$SURFV
 70
     6
  9
$UCSNAME
  2

  9
$UCSORG
 10
0.0
 20
0.0
 30
0.0
  9
$UCSXDIR
 10
1.0
 20
0.0
 30
0.0
  9
$UCSYDIR
 10
0.0
 20
1.0
 30
0.0
  9
$PUCSNAME
  2

  9
$PUCSORG
 10
0.0
 20
0.0
 30
0.0
  9
$PUCSXDIR
 10
1.0
 20
0.0
 30
0.0
  9
$PUCSYDIR
 10
0.0
 20
1.0
 30
0.0
  9
$USERI1
 70
     0
  9
$USERI2
 70
     0
  9
$USERI3
 70
     0
  9
$USERI4
 70
     0
  9
$USERI5
 70
     0
  9
$USERR1
 40
0.0
  9
$USERR2
 40
0.0
  9
$USERR3
 40
0.0
  9
$USERR4
 40
0.0
  9
$USERR5
 40
0.0
  9
$WORLDVIEW
 70
     1
  9
$SHADEDGE
 70
     3
  9
$SHADEDIF
 70
    70
  9
$TILEMODE
 70
     1
  9
$MAXACTVP
 70
    64
  9
$PINSBASE
 10
0.0
 20
0.0
 30
0.0
  9
$PLIMCHECK
 70
     0
  9
$PEXTMIN
 10
0.0
 20
0.0
 30
0.0
  9
$PEXTMAX
 10
0.0
 20
0.0
 30
0.0
  9
$PLIMMIN
 10
0.0
 20
0.0
  9
$PLIMMAX
 10
12.0
 20
9.0
  9
$UNITMODE
 70
     0
  9
$VISRETAIN
 70
     1
  9
$PLINEGEN
 70
     0
  9
$PSLTSCALE
 70
     1
  9
$TREEDEPTH
 70
  3020
  9
$ATTDIA
 70
     0
  9
$ATTREQ
 70
     1
  9
$BLIPMODE
 70
     1
  9
$COORDS
 70
     1
  9
$DRAGMODE
 70
     2
  9
$OSMODE
 70
     0
  9
$HANDLING
 70
     0
  9
$HANDSEED
  5
3089
  0
ENDSEC
  0
SECTION
  2
TABLES
  0
TABLE
  2
LTYPE
 70
     4
  0
LTYPE
  2
CONTINUOUS
 70
     0
  3
Solid line
 72
    65
 73
     0
 40
0.0
  0
LTYPE
  2
AM_ISO02W050
 70
     0
  3
__ __ __ __ __ __ __ __ __ __ __ __ __ __ __
 72
    65
 73
     2
 40
7.5
 49
6.0
 49
-1.5
  0
LTYPE
  2
AM_ISO08W050
 70
     0
  3
____ . ____ . ____ . ____ . ____ . ____ . ____
 72
    65
 73
     4
 40
18.0
 49
12.0
 49
-1.5
 49
3.0
 49
-1.5
  0
LTYPE
  2
CENTER
 70
     0
  3
__ . __
 72
    65
 73
     4
 40
7.0
 49
4.0
 49
-1.0
 49
1.0
 49
-1.0
  0
ENDTAB
  0
TABLE
  2
LAYER
 70
     8
  0
LAYER
  2
SIZE
 70
     0
 62
    30
  6
CONTINUOUS
  0
LAYER
  2
OUTLINE
 70
     0
 62
     3
  6
CONTINUOUS
  0
LAYER
  2
SERVICESPACE
 70
     0
 62
     2
  6
AM_ISO02W050
  0
LAYER
  2
DETAIL
 70
     0
 62
     5
  6
CONTINUOUS
  0
LAYER
  2
NOTE
 70
     0
 62
     4
  6
CONTINUOUS
  0
LAYER
  2
FIX
 70
     0
 62
    11
  6
CONTINUOUS
  0
LAYER
  2
BASIS
 70
     0
 62
     6
  6
AM_ISO08W050
  0
LAYER
  2
ARRANGE
 70
     0
 62
     1
  6
CONTINUOUS
  0
ENDTAB
  0
TABLE
  2
STYLE
 70
     2
  0
STYLE
  2
STANDARD
 70
     0
 40
0.0
 41
0.7
 50
0.0
 71
     0
 42
2.5
  3
simplex.shx
  4
bigfont.shx
  0
STYLE
  2
STYLE1
 70
     0
 40
0.0
 41
1.0
 50
0.0
 71
     0
 42
2.5
  3
monotxt.shx
  4
bigfont.shx
  0
ENDTAB
  0
TABLE
  2
APPID
 70
    50
  0
APPID
  2
ACAD
 70
     0
  0
APPID
  2
MCAD_NO_VIS
 70
     0
  0
APPID
  2
ACAD_TEMP_GRAPHIC
 70
     0
  0
APPID
  2
ACATTRIBSERVICES
 70
     0
  0
APPID
  2
AD_DRAW
 70
     0
  0
APPID
  2
DESIGNERASSEMBLIES
 70
     0
  0
APPID
  2
ACADM_DIM_EDIT
 70
     0
  0
APPID
  2
AMDT_DM_ADJ
 70
     0
  0
APPID
  2
RAK
 70
     0
  0
APPID
  2
ACAD_DSTYLE_DIMARC_LENGTH_SYMBO
 70
     0
  0
APPID
  2
ACAD_DSTYLE_DIMJOGGED_JOGANGLE_
 70
     0
  0
APPID
  2
GENIUS_GENTRA_14
 70
     0
  0
APPID
  2
GENIUS_GENOENT_13
 70
     0
  0
APPID
  2
GENIUS_GENOLIS_13
 70
     0
  0
APPID
  2
GENIUS_GENOBJ-N-TIT_13
 70
     0
  0
APPID
  2
GENIUS_GENODEF_13
 70
     0
  0
APPID
  2
GENIUS_GENTITLE_13
 70
     0
  0
APPID
  2
GENIUS_GENOREF_13
 70
     0
  0
APPID
  2
GENIUS_GENSCREG_15
 70
     0
  0
APPID
  2
GENIUS_GENOBJ-N-SDF_13
 70
     0
  0
APPID
  2
ACAECLAYERSTANDARD
 70
     0
  0
APPID
  2
ACAD_DSTYLE_DIMEXT_LENGTH
 70
     0
  0
APPID
  2
ACAD_DSTYLE_DIMEXT_ENABLED
 70
     0
  0
APPID
  2
ACAD_PSEXT
 70
     0
  0
APPID
  2
GENIUS_GENOBJ-N-CEN_13
 70
     0
  0
APPID
  2
DCO15
 70
     0
  0
APPID
  2
ACAD_NAV_VCDISPLAY
 70
     0
  0
APPID
  2
ACADANNOPO
 70
     0
  0
APPID
  2
ACADANNOTATIVE
 70
     0
  0
APPID
  2
ACAD_DSTYLE_DIMJAG
 70
     0
  0
APPID
  2
ACAD_DSTYLE_DIMTALN
 70
     0
  0
APPID
  2
ACAD_MLEADERVER
 70
     0
  0
APPID
  2
ACAD_DSTYLE_DIMBREAK
 70
     0
  0
APPID
  2
ACAD_EXEMPT_FROM_CAD_STANDARDS
 70
     0
  0
APPID
  2
GENIUS_GENREC_14
 70
     0
  0
APPID
  2
GENIUS_GENOBJ-N-REC_13
 70
     0
  0
APPID
  2
GENIUS_GENDIM_13
 70
     0
  0
APPID
  2
GENIUS_GENDTOL_13
 70
     0
  0
APPID
  2
GENIUS_GE3DTOL_13
 70
     0
  0
APPID
  2
ASURF_PCURVE_APPNAME
 70
     0
  0
APPID
  2
AMG_3D2D_5_0
 70
     0
  0
APPID
  2
GENIUS_GENOBJ-N-HTC_13
 70
     0
  0
APPID
  2
GENIUS_GENHATCH_13
 70
     0
  0
APPID
  2
GRADIENTCOLOR1ACI
 70
     0
  0
APPID
  2
GRADIENTCOLOR2ACI
 70
     0
  0
APPID
  2
ACADSTRINGINFO
 70
     0
  0
APPID
  2
ACCMTRANSPARENCY
 70
     0
  0
APPID
  2
ACAD_DSTYLE_DIM_LINETYPE
 70
     0
  0
APPID
  2
ACAD_DSTYLE_DIM_EXT1_LINETYPE
 70
     0
  0
APPID
  2
ACAD_DSTYLE_DIM_EXT2_LINETYPE
 70
     0
  0
ENDTAB
  0
TABLE
  2
DIMSTYLE
 70
     1
  0
DIMSTYLE
  2
MHIJIS
 70
     0
  3

  4
"
  5
_OPEN30
  6

  7

 40
1.0
 41
3.149999999999999
 42
0.0
 43
12.0
 44
2.0
 45
0.0
 46
0.0
 47
0.1
 48
0.1
140
4.0
141
0.0
142
0.0
143
0.0393701
144
1.0
145
0.0
146
0.71
147
1.0
 71
     0
 72
     0
 73
     0
 74
     0
 75
     0
 76
     0
 77
     3
 78
     8
170
     0
171
     2
172
     1
173
     0
174
     0
175
     0
176
     3
177
     3
178
     3
  0
ENDTAB
  0
TABLE
  2
VIEW
 70
     6
  0
VIEW
  2
AM_VIEW1
 70
     0
 40
2100.0
 10
1795.317920520723
 20
3149.9999968187299
 41
3590.6358381502891
 11
0.0
 21
0.0
 31
1.0
 12
0.0
 22
0.0
 32
0.0
 42
50.0
 43
0.0
 44
0.0
 50
0.0
 71
     0
  0
VIEW
  2
AM_VIEW2
 70
     0
 40
2100.0
 10
4144.6820823704329
 20
3149.9999968187299
 41
3590.6358381502891
 11
0.0
 21
0.0
 31
1.0
 12
0.0
 22
0.0
 32
0.0
 42
50.0
 43
0.0
 44
0.0
 50
0.0
 71
     0
  0
VIEW
  2
AM_VIEW3
 70
     0
 40
2100.0
 10
1795.317920520723
 20
1049.999996818729
 41
3590.6358381502891
 11
0.0
 21
0.0
 31
1.0
 12
0.0
 22
0.0
 32
0.0
 42
50.0
 43
0.0
 44
0.0
 50
0.0
 71
     0
  0
VIEW
  2
AM_VIEW4
 70
     0
 40
2100.0
 10
4144.6820823704329
 20
1049.999996818729
 41
3590.6358381502891
 11
0.0
 21
0.0
 31
1.0
 12
0.0
 22
0.0
 32
0.0
 42
50.0
 43
0.0
 44
0.0
 50
0.0
 71
     0
  0
VIEW
  2
AM_VIEW5
 70
     0
 40
2100.0
 10
2970.0000014455782
 20
2099.999996818729
 41
3590.6358381502891
 11
0.0
 21
0.0
 31
1.0
 12
0.0
 22
0.0
 32
0.0
 42
50.0
 43
0.0
 44
0.0
 50
0.0
 71
     0
  0
VIEW
  2
AM_VIEW6
 70
     0
 40
4199.9580000000014
 10
2970.0000014455782
 20
2099.999996818729
 41
7181.1998635838154
 11
0.0
 21
0.0
 31
1.0
 12
0.0
 22
0.0
 32
0.0
 42
50.0
 43
0.0
 44
0.0
 50
0.0
 71
     0
  0
ENDTAB
  0
TABLE
  2
UCS
 70
     0
  0
ENDTAB
  0
TABLE
  2
VPORT
 70
     1
  0
VPORT
  2
*ACTIVE
 70
     0
 10
0.0
 20
0.0
 11
1.0
 21
1.0
 12
-3.4898857818269562
 22
-209.4936022888937
 13
0.0
 23
0.0
 14
25.0
 24
25.0
 15
100.0
 25
100.0
 16
0.0
 26
0.0
 36
1.0
 17
0.0
 27
0.0
 37
0.0
 40
1205.764280240249
 41
1.869760479041916
 42
50.0
 43
0.0
 44
0.0
 50
0.0
 51
0.0
 71
     0
 72
   100
 73
     1
 74
     3
 75
     0
 76
     0
 77
     0
 78
     0
  0
ENDTAB
  0
ENDSEC
  0
SECTION
  2
BLOCKS
  0
BLOCK
  8
SIZE
  2
_OPEN30
 70
     0
 10
0.0
 20
0.0
 30
0.0
  3
_OPEN30
  1
_Open30
  0
LINE
  8
SIZE
  6
ByBlock
 62
    30
 10
-1.0
 20
0.26794919
 30
0.0
 11
0.0
 21
0.0
 31
0.0
  0
LINE
  8
SIZE
  6
ByBlock
 62
    30
 10
0.0
 20
0.0
 30
0.0
 11
-1.0
 21
-0.26794919
 31
0.0
  0
LINE
  8
SIZE
  6
ByBlock
 62
    30
 10
0.0
 20
0.0
 30
0.0
 11
-1.0
 21
0.0
 31
0.0
  0
ENDBLK
  8
SIZE
  0
BLOCK
  8
SIZE
  2
SD4
 70
     0
 10
0.0
 20
0.0
 30
0.0
  3
SD4
  1
*D4
  0
LINE
  8
SIZE
 10
-399.97499999999951
 20
-46.974748135499112
 30
0.0
 11
-399.97499999999951
 21
267.67588242130302
 31
0.0
  0
LINE
  8
SIZE
 10
-72.674999999999272
 20
-73.999748135499658
 30
0.0
 11
-72.674999999999258
 21
267.67588242130302
 31
0.0
  0
LINE
  8
SIZE
 10
-369.9749999999994
 20
247.67588242130299
 30
0.0
 11
-102.6749999999992
 21
247.67588242130299
 31
0.0
  0
INSERT
  8
SIZE
  2
_OPEN30
 10
-399.97499999999951
 20
247.67588242130299
 30
0.0
 41
30.0
 42
30.0
 43
30.0
 50
180.0
  0
INSERT
  8
SIZE
  2
_OPEN30
 10
-72.674999999999258
 20
247.67588242130299
 30
0.0
 41
30.0
 42
30.0
 43
30.0
  0
INSERT
  8
SIZE
  2
MTEXT_0
 10
0.0
 20
0.0
 30
0.0
 41
1.0
 42
1.0
 43
1.0
 50
0.0
210
0.0
220
0.0
230
1.0
  0
POINT
  8
SIZE
 62
    30
 10
-399.97499999999951
 20
-46.974748135499112
 30
0.0
  0
POINT
  8
SIZE
 62
    30
 10
-72.674999999999272
 20
-73.999748135499658
 30
0.0
  0
POINT
  8
SIZE
 62
    30
 10
-72.674999999999258
 20
247.67588242130299
 30
0.0
  0
ENDBLK
  8
SIZE
  0
BLOCK
  8
SIZE
  2
SD5
 70
     0
 10
0.0
 20
0.0
 30
0.0
  3
SD5
  1
*D5
  0
LINE
  8
SIZE
 10
-72.674999999999272
 20
-73.999748135499658
 30
0.0
 11
-703.40806169547272
 21
-73.999748135499473
 31
0.0
  0
LINE
  8
SIZE
 10
-372.65218975144307
 20
-30.499748135499662
 30
0.0
 11
-703.40806169547272
 21
-30.499748135499559
 31
0.0
  0
LINE
  8
SIZE
 10
-683.40806169547272
 20
-103.9997481354995
 30
0.0
 11
-683.40806169547272
 21
-133.99974813549949
 31
0.0
  0
LINE
  8
SIZE
 10
-683.40806169547272
 20
-0.4997481354995702
 30
0.0
 11
-683.40806169547272
 21
113.5002518645004
 31
0.0
  0
LINE
  8
SIZE
 10
-683.40806169547272
 20
-73.999748135499473
 30
0.0
 11
-683.40806169547272
 21
-30.499748135499569
 31
0.0
  0
INSERT
  8
SIZE
  2
_OPEN30
 10
-683.40806169547272
 20
-73.999748135499473
 30
0.0
 41
30.0
 42
30.0
 43
30.0
 50
90.0
  0
INSERT
  8
SIZE
  2
_OPEN30
 10
-683.40806169547272
 20
-30.499748135499569
 30
0.0
 41
30.0
 42
30.0
 43
30.0
 50
270.0
  0
INSERT
  8
SIZE
  2
MTEXT_1
 10
0.0
 20
0.0
 30
0.0
 41
1.0
 42
1.0
 43
1.0
 50
0.0
210
0.0
220
0.0
230
1.0
  0
POINT
  8
SIZE
 62
    30
 10
-72.674999999999272
 20
-73.999748135499658
 30
0.0
  0
POINT
  8
SIZE
 62
    30
 10
-372.65218975144307
 20
-30.499748135499662
 30
0.0
  0
POINT
  8
SIZE
 62
    30
 10
-683.40806169547272
 20
-30.499748135499569
 30
0.0
  0
ENDBLK
  8
SIZE
  0
BLOCK
  8
SIZE
  2
SD6
 70
     0
 10
0.0
 20
0.0
 30
0.0
  3
SD6
  1
*D6
  0
LINE
  8
SIZE
 10
-72.674999999999272
 20
-236.89974813549929
 30
0.0
 11
-603.07890555644929
 21
-236.89974813549921
 31
0.0
  0
LINE
  8
SIZE
 10
-375.76186750614971
 20
-320.39974813549952
 30
0.0
 11
-603.07890555644929
 21
-320.39974813549952
 31
0.0
  0
LINE
  8
SIZE
 10
-583.07890555644929
 20
-266.89974813549918
 30
0.0
 11
-583.07890555644929
 21
-290.39974813549952
 31
0.0
  0
LINE
  8
SIZE
 10
-583.07890555644929
 20
-320.39974813549952
 30
0.0
 11
-583.07890555644929
 21
-434.39974813549941
 31
0.0
  0
INSERT
  8
SIZE
  2
_OPEN30
 10
-583.07890555644917
 20
-236.89974813549921
 30
0.0
 41
30.0
 42
30.0
 43
30.0
 50
90.0
  0
INSERT
  8
SIZE
  2
_OPEN30
 10
-583.07890555644929
 20
-320.39974813549952
 30
0.0
 41
30.0
 42
30.0
 43
30.0
 50
270.0
  0
INSERT
  8
SIZE
  2
MTEXT_2
 10
0.0
 20
0.0
 30
0.0
 41
1.0
 42
1.0
 43
1.0
 50
0.0
210
0.0
220
0.0
230
1.0
  0
POINT
  8
SIZE
 62
    30
 10
-72.674999999999272
 20
-236.89974813549929
 30
0.0
  0
POINT
  8
SIZE
 62
    30
 10
-375.76186750614971
 20
-320.39974813549952
 30
0.0
  0
POINT
  8
SIZE
 62
    30
 10
-583.07890555644929
 20
-320.39974813549952
 30
0.0
  0
ENDBLK
  8
SIZE
  0
BLOCK
  8
SIZE
  2
SD7
 70
     0
 10
0.0
 20
0.0
 30
0.0
  3
SD7
  1
*D7
  0
LINE
  8
SIZE
 10
-72.674999999999272
 20
-236.89974813549929
 30
0.0
 11
-72.674999999999287
 21
-548.43980551461277
 31
0.0
  0
LINE
  8
SIZE
 10
-399.97499999999951
 20
-285.91836308410598
 30
0.0
 11
-399.97499999999951
 21
-548.43980551461277
 31
0.0
  0
LINE
  8
SIZE
 10
-102.6749999999993
 20
-528.43980551461277
 30
0.0
 11
-369.9749999999994
 21
-528.43980551461277
 31
0.0
  0
INSERT
  8
SIZE
  2
_OPEN30
 10
-72.674999999999287
 20
-528.43980551461277
 30
0.0
 41
30.0
 42
30.0
 43
30.0
  0
INSERT
  8
SIZE
  2
_OPEN30
 10
-399.97499999999951
 20
-528.43980551461277
 30
0.0
 41
30.0
 42
30.0
 43
30.0
 50
180.0
  0
INSERT
  8
SIZE
  2
MTEXT_3
 10
0.0
 20
0.0
 30
0.0
 41
1.0
 42
1.0
 43
1.0
 50
0.0
210
0.0
220
0.0
230
1.0
  0
POINT
  8
SIZE
 62
    30
 10
-72.674999999999272
 20
-236.89974813549929
 30
0.0
  0
POINT
  8
SIZE
 62
    30
 10
-399.97499999999951
 20
-285.91836308410598
 30
0.0
  0
POINT
  8
SIZE
 62
    30
 10
-399.97499999999951
 20
-528.43980551461277
 30
0.0
  0
ENDBLK
  8
SIZE
  0
BLOCK
  8
SIZE
  2
SD8
 70
     0
 10
0.0
 20
0.0
 30
0.0
  3
SD8
  1
*D8
  0
LINE
  8
SIZE
 10
-310.97500000000082
 20
-351.79984813549908
 30
0.0
 11
-310.97500000000082
 21
-624.07107775751194
 31
0.0
  0
LINE
  8
SIZE
 10
-399.97499999999923
 20
-282.65289924005151
 30
0.0
 11
-399.97499999999923
 21
-624.07107775751194
 31
0.0
  0
LINE
  8
SIZE
 10
-340.97500000000082
 20
-604.07107775751194
 30
0.0
 11
-369.97499999999923
 21
-604.07107775751194
 31
0.0
  0
INSERT
  8
SIZE
  2
_OPEN30
 10
-310.97500000000082
 20
-604.07107775751194
 30
0.0
 41
30.0
 42
30.0
 43
30.0
  0
INSERT
  8
SIZE
  2
_OPEN30
 10
-399.97499999999923
 20
-604.07107775751194
 30
0.0
 41
30.0
 42
30.0
 43
30.0
 50
180.0
  0
INSERT
  8
SIZE
  2
MTEXT_4
 10
0.0
 20
0.0
 30
0.0
 41
1.0
 42
1.0
 43
1.0
 50
0.0
210
0.0
220
0.0
230
1.0
  0
POINT
  8
SIZE
 62
    30
 10
-310.97500000000082
 20
-351.79984813549908
 30
0.0
  0
POINT
  8
SIZE
 62
    30
 10
-399.97499999999923
 20
-282.65289924005151
 30
0.0
  0
POINT
  8
SIZE
 62
    30
 10
-399.97499999999923
 20
-604.07107775751194
 30
0.0
  0
ENDBLK
  8
SIZE
  0
BLOCK
  8
SIZE
  2
SD9
 70
     0
 10
0.0
 20
0.0
 30
0.0
  3
SD9
  1
*D9
  0
LINE
  8
SIZE
 10
-310.97500000000082
 20
-344.7997481354987
 30
0.0
 11
-310.97500000000082
 21
-624.07107775751194
 31
0.0
  0
LINE
  8
SIZE
 10
199.02499999999921
 20
-344.2997981354992
 30
0.0
 11
199.0249999999991
 21
-624.07107775751194
 31
0.0
  0
LINE
  8
SIZE
 10
-280.97500000000082
 20
-604.07107775751194
 30
0.0
 11
169.0249999999991
 21
-604.07107775751194
 31
0.0
  0
INSERT
  8
SIZE
  2
_OPEN30
 10
-310.97500000000082
 20
-604.07107775751194
 30
0.0
 41
30.0
 42
30.0
 43
30.0
 50
180.0
  0
INSERT
  8
SIZE
  2
_OPEN30
 10
199.0249999999991
 20
-604.07107775751194
 30
0.0
 41
30.0
 42
30.0
 43
30.0
  0
INSERT
  8
SIZE
  2
MTEXT_5
 10
0.0
 20
0.0
 30
0.0
 41
1.0
 42
1.0
 43
1.0
 50
0.0
210
0.0
220
0.0
230
1.0
  0
POINT
  8
SIZE
 62
    30
 10
-310.97500000000082
 20
-344.7997481354987
 30
0.0
  0
POINT
  8
SIZE
 62
    30
 10
199.02499999999921
 20
-344.2997981354992
 30
0.0
  0
POINT
  8
SIZE
 62
    30
 10
199.0249999999991
 20
-604.07107775751194
 30
0.0
  0
ENDBLK
  8
SIZE
  0
BLOCK
  8
SIZE
  2
SD10
 70
     0
 10
0.0
 20
0.0
 30
0.0
  3
SD10
  1
*D10
  0
LINE
  8
SIZE
 10
199.02499999999921
 20
-351.79984813549908
 30
0.0
 11
199.0249999999991
 21
-624.07107775751194
 31
0.0
  0
LINE
  8
SIZE
 10
400.02500000000049
 20
-276.78572061823138
 30
0.0
 11
400.02500000000049
 21
-624.07107775751194
 31
0.0
  0
LINE
  8
SIZE
 10
229.0249999999991
 20
-604.07107775751194
 30
0.0
 11
370.02500000000049
 21
-604.07107775751194
 31
0.0
  0
INSERT
  8
SIZE
  2
_OPEN30
 10
199.0249999999991
 20
-604.07107775751194
 30
0.0
 41
30.0
 42
30.0
 43
30.0
 50
180.0
  0
INSERT
  8
SIZE
  2
_OPEN30
 10
400.02500000000049
 20
-604.07107775751194
 30
0.0
 41
30.0
 42
30.0
 43
30.0
  0
INSERT
  8
SIZE
  2
MTEXT_6
 10
0.0
 20
0.0
 30
0.0
 41
1.0
 42
1.0
 43
1.0
 50
0.0
210
0.0
220
0.0
230
1.0
  0
POINT
  8
SIZE
 62
    30
 10
199.02499999999921
 20
-351.79984813549908
 30
0.0
  0
POINT
  8
SIZE
 62
    30
 10
400.02500000000049
 20
-276.78572061823138
 30
0.0
  0
POINT
  8
SIZE
 62
    30
 10
400.02500000000049
 20
-604.07107775751194
 30
0.0
  0
ENDBLK
  8
SIZE
  0
BLOCK
  8
SIZE
  2
SD11
 70
     0
 10
0.0
 20
0.0
 30
0.0
  3
SD11
  1
*D11
  0
LINE
  8
SIZE
 10
417.92500000000013
 20
-188.39974813549901
 30
0.0
 11
417.92500000000013
 21
-624.07107775751194
 31
0.0
  0
LINE
  8
SIZE
 10
400.02500000000049
 20
-300.39966375119872
 30
0.0
 11
400.02500000000049
 21
-624.07107775751194
 31
0.0
  0
LINE
  8
SIZE
 10
370.02500000000049
 20
-604.07107775751194
 30
0.0
 11
340.02500000000049
 21
-604.07107775751194
 31
0.0
  0
LINE
  8
SIZE
 10
447.92500000000018
 20
-604.07107775751194
 30
0.0
 11
556.92500000000018
 21
-604.07107775751194
 31
0.0
  0
LINE
  8
SIZE
 10
400.02500000000049
 20
-604.07107775751194
 30
0.0
 11
417.92500000000013
 21
-604.07107775751194
 31
0.0
  0
INSERT
  8
SIZE
  2
_OPEN30
 10
400.02500000000049
 20
-604.07107775751194
 30
0.0
 41
30.0
 42
30.0
 43
30.0
  0
INSERT
  8
SIZE
  2
_OPEN30
 10
417.92500000000013
 20
-604.07107775751194
 30
0.0
 41
30.0
 42
30.0
 43
30.0
 50
180.0
  0
INSERT
  8
SIZE
  2
MTEXT_7
 10
0.0
 20
0.0
 30
0.0
 41
1.0
 42
1.0
 43
1.0
 50
0.0
210
0.0
220
0.0
230
1.0
  0
POINT
  8
SIZE
 62
    30
 10
417.92500000000013
 20
-188.39974813549901
 30
0.0
  0
POINT
  8
SIZE
 62
    30
 10
400.02500000000049
 20
-300.39966375119872
 30
0.0
  0
POINT
  8
SIZE
 62
    30
 10
400.02500000000049
 20
-604.07107775751194
 30
0.0
  0
ENDBLK
  8
SIZE
  0
BLOCK
  8
SIZE
  2
SD12
 70
     0
 10
0.0
 20
0.0
 30
0.0
  3
SD12
  1
*D12
  0
LINE
  8
SIZE
 10
380.02491866561741
 20
-320.39974813533411
 30
0.0
 11
737.57632683337761
 21
-320.39974813533422
 31
0.0
  0
LINE
  8
SIZE
 10
214.0250999999989
 20
-336.79974813549939
 30
0.0
 11
737.57632683337761
 21
-336.79974813549961
 31
0.0
  0
LINE
  8
SIZE
 10
717.57632683337761
 20
-290.39974813533422
 30
0.0
 11
717.57632683337761
 21
-260.39974813533422
 31
0.0
  0
LINE
  8
SIZE
 10
717.57632683337761
 20
-366.79974813549961
 30
0.0
 11
717.57632683337761
 21
-477.7997481354995
 31
0.0
  0
LINE
  8
SIZE
 10
717.57632683337761
 20
-320.39974813533422
 30
0.0
 11
717.57632683337761
 21
-336.79974813549961
 31
0.0
  0
INSERT
  8
SIZE
  2
_OPEN30
 10
717.57632683337761
 20
-320.39974813533422
 30
0.0
 41
30.0
 42
30.0
 43
30.0
 50
270.0
  0
INSERT
  8
SIZE
  2
_OPEN30
 10
717.57632683337761
 20
-336.79974813549961
 30
0.0
 41
30.0
 42
30.0
 43
30.0
 50
90.0
  0
INSERT
  8
SIZE
  2
MTEXT_8
 10
0.0
 20
0.0
 30
0.0
 41
1.0
 42
1.0
 43
1.0
 50
0.0
210
0.0
220
0.0
230
1.0
  0
POINT
  8
SIZE
 62
    30
 10
380.02491866561741
 20
-320.39974813533411
 30
0.0
  0
POINT
  8
SIZE
 62
    30
 10
214.0250999999989
 20
-336.79974813549939
 30
0.0
  0
POINT
  8
SIZE
 62
    30
 10
717.57632683337761
 20
-336.79974813549961
 30
0.0
  0
ENDBLK
  8
SIZE
  0
BLOCK
  8
SIZE
  2
SD13
 70
     0
 10
0.0
 20
0.0
 30
0.0
  3
SD13
  1
*D13
  0
LINE
  8
SIZE
 10
210.1659665723582
 20
-336.79974813549939
 30
0.0
 11
811.21331617347994
 21
-336.79974813549961
 31
0.0
  0
LINE
  8
SIZE
 10
214.32499999999891
 20
-351.59974813549962
 30
0.0
 11
811.21331617347994
 21
-351.59974813549968
 31
0.0
  0
LINE
  8
SIZE
 10
791.21331617348005
 20
-306.7997481354995
 30
0.0
 11
791.21331617348005
 21
-276.79974813549961
 31
0.0
  0
LINE
  8
SIZE
 10
791.21331617348005
 20
-381.59974813549968
 30
0.0
 11
791.21331617348005
 21
-491.59974813549968
 31
0.0
  0
LINE
  8
SIZE
 10
791.21331617348005
 20
-336.79974813549961
 30
0.0
 11
791.21331617348005
 21
-351.59974813549968
 31
0.0
  0
INSERT
  8
SIZE
  2
_OPEN30
 10
791.21331617348005
 20
-336.79974813549961
 30
0.0
 41
30.0
 42
30.0
 43
30.0
 50
270.0
  0
INSERT
  8
SIZE
  2
_OPEN30
 10
791.21331617348005
 20
-351.59974813549968
 30
0.0
 41
30.0
 42
30.0
 43
30.0
 50
90.0
  0
INSERT
  8
SIZE
  2
MTEXT_9
 10
0.0
 20
0.0
 30
0.0
 41
1.0
 42
1.0
 43
1.0
 50
0.0
210
0.0
220
0.0
230
1.0
  0
POINT
  8
SIZE
 62
    30
 10
210.1659665723582
 20
-336.79974813549939
 30
0.0
  0
POINT
  8
SIZE
 62
    30
 10
214.32499999999891
 20
-351.59974813549962
 30
0.0
  0
POINT
  8
SIZE
 62
    30
 10
791.21331617348005
 20
-351.59974813549968
 30
0.0
  0
ENDBLK
  8
SIZE
  0
BLOCK
  8
SIZE
  2
SD14
 70
     0
 10
0.0
 20
0.0
 30
0.0
  3
SD14
  1
*D14
  0
LINE
  8
SIZE
 10
214.0250999999989
 20
-336.79974813549939
 30
0.0
 11
811.21331617347755
 21
-336.79974813549961
 31
0.0
  0
LINE
  8
SIZE
 10
214.0251000000012
 20
-24.299748135499389
 30
0.0
 11
811.21331617347778
 21
-24.299748135499559
 31
0.0
  0
LINE
  8
SIZE
 10
791.21331617347755
 20
-306.7997481354995
 30
0.0
 11
791.21331617347778
 21
-54.299748135499549
 31
0.0
  0
INSERT
  8
SIZE
  2
_OPEN30
 10
791.21331617347755
 20
-336.79974813549961
 30
0.0
 41
30.0
 42
30.0
 43
30.0
 50
270.0
  0
INSERT
  8
SIZE
  2
_OPEN30
 10
791.21331617347778
 20
-24.299748135499549
 30
0.0
 41
30.0
 42
30.0
 43
30.0
 50
90.0
  0
INSERT
  8
SIZE
  2
MTEXT_10
 10
0.0
 20
0.0
 30
0.0
 41
1.0
 42
1.0
 43
1.0
 50
0.0
210
0.0
220
0.0
230
1.0
  0
POINT
  8
SIZE
 62
    30
 10
214.0250999999989
 20
-336.79974813549939
 30
0.0
  0
POINT
  8
SIZE
 62
    30
 10
214.0251000000012
 20
-24.299748135499389
 30
0.0
  0
POINT
  8
SIZE
 62
    30
 10
791.21331617347778
 20
-24.299748135499549
 30
0.0
  0
ENDBLK
  8
SIZE
  0
BLOCK
  8
SIZE
  2
SD15
 70
     0
 10
0.0
 20
0.0
 30
0.0
  3
SD15
  1
*D15
  0
LINE
  8
SIZE
 10
214.0251000000012
 20
-24.299748135499389
 30
0.0
 11
811.21331617347687
 21
-24.299748135499559
 31
0.0
  0
LINE
  8
SIZE
 10
214.32500000000121
 20
0.0002518645001146
 30
0.0
 11
811.21331617347687
 21
0.0002518644999455
 31
0.0
  0
LINE
  8
SIZE
 10
791.21331617347676
 20
-54.299748135499549
 30
0.0
 11
791.21331617347676
 21
-84.299748135499541
 31
0.0
  0
LINE
  8
SIZE
 10
791.21331617347676
 20
30.000251864499951
 30
0.0
 11
791.21331617347676
 21
144.00025186449989
 31
0.0
  0
LINE
  8
SIZE
 10
791.21331617347676
 20
-24.299748135499549
 30
0.0
 11
791.21331617347676
 21
0.0002518644999512
 31
0.0
  0
INSERT
  8
SIZE
  2
_OPEN30
 10
791.21331617347676
 20
-24.299748135499549
 30
0.0
 41
30.0
 42
30.0
 43
30.0
 50
90.0
  0
INSERT
  8
SIZE
  2
_OPEN30
 10
791.21331617347676
 20
0.0002518644999512
 30
0.0
 41
30.0
 42
30.0
 43
30.0
 50
270.0
  0
INSERT
  8
SIZE
  2
MTEXT_11
 10
0.0
 20
0.0
 30
0.0
 41
1.0
 42
1.0
 43
1.0
 50
0.0
210
0.0
220
0.0
230
1.0
  0
POINT
  8
SIZE
 62
    30
 10
214.0251000000012
 20
-24.299748135499389
 30
0.0
  0
POINT
  8
SIZE
 62
    30
 10
214.32500000000121
 20
0.0002518645001146
 30
0.0
  0
POINT
  8
SIZE
 62
    30
 10
791.21331617347676
 20
0.0002518644999512
 30
0.0
  0
ENDBLK
  8
SIZE
  0
BLOCK
  8
SIZE
  2
SD16
 70
     0
 10
0.0
 20
0.0
 30
0.0
  3
SD16
  1
*D16
  0
LINE
  8
SIZE
 10
214.32500000000121
 20
0.0000000000002274
 30
0.0
 11
887.78354210022383
 21
0.0000000000000366
 31
0.0
  0
LINE
  8
SIZE
 10
214.32499999999891
 20
-351.59974813549962
 30
0.0
 11
887.7835421002236
 21
-351.59974813549968
 31
0.0
  0
LINE
  8
SIZE
 10
867.78354210022394
 20
-29.999999999999961
 30
0.0
 11
867.78354210022371
 21
-321.59974813549968
 31
0.0
  0
INSERT
  8
SIZE
  2
_OPEN30
 10
867.78354210022394
 20
0.0000000000000423
 30
0.0
 41
30.0
 42
30.0
 43
30.0
 50
90.0
  0
INSERT
  8
SIZE
  2
_OPEN30
 10
867.78354210022371
 20
-351.59974813549968
 30
0.0
 41
30.0
 42
30.0
 43
30.0
 50
270.0
  0
INSERT
  8
SIZE
  2
MTEXT_12
 10
0.0
 20
0.0
 30
0.0
 41
1.0
 42
1.0
 43
1.0
 50
0.0
210
0.0
220
0.0
230
1.0
  0
POINT
  8
SIZE
 62
    30
 10
214.32500000000121
 20
0.0000000000002274
 30
0.0
  0
POINT
  8
SIZE
 62
    30
 10
214.32499999999891
 20
-351.59974813549962
 30
0.0
  0
POINT
  8
SIZE
 62
    30
 10
867.78354210022371
 20
-351.59974813549968
 30
0.0
  0
ENDBLK
  8
SIZE
  0
BLOCK
  8
SIZE
  2
SD17
 70
     0
 10
0.0
 20
0.0
 30
0.0
  3
SD17
  1
*D17
  0
LINE
  8
SIZE
 10
173.7249999999994
 20
-12.34508985190109
 30
0.0
 11
173.7249999999994
 21
167.27214037112859
 31
0.0
  0
LINE
  8
SIZE
 10
224.3250000000007
 20
-13.06002545848491
 30
0.0
 11
224.3250000000007
 21
167.27214037112859
 31
0.0
  0
LINE
  8
SIZE
 10
143.7249999999994
 20
147.2721403711287
 30
0.0
 11
113.7249999999994
 21
147.2721403711287
 31
0.0
  0
LINE
  8
SIZE
 10
254.3250000000007
 20
147.2721403711287
 30
0.0
 11
367.32500000000073
 21
147.2721403711287
 31
0.0
  0
LINE
  8
SIZE
 10
173.7249999999994
 20
147.2721403711287
 30
0.0
 11
224.3250000000007
 21
147.2721403711287
 31
0.0
  0
INSERT
  8
SIZE
  2
_OPEN30
 10
173.7249999999994
 20
147.2721403711287
 30
0.0
 41
30.0
 42
30.0
 43
30.0
  0
INSERT
  8
SIZE
  2
_OPEN30
 10
224.3250000000007
 20
147.2721403711287
 30
0.0
 41
30.0
 42
30.0
 43
30.0
 50
180.0
  0
INSERT
  8
SIZE
  2
MTEXT_13
 10
0.0
 20
0.0
 30
0.0
 41
1.0
 42
1.0
 43
1.0
 50
0.0
210
0.0
220
0.0
230
1.0
  0
POINT
  8
SIZE
 62
    30
 10
173.7249999999994
 20
-12.34508985190109
 30
0.0
  0
POINT
  8
SIZE
 62
    30
 10
224.3250000000007
 20
-13.06002545848491
 30
0.0
  0
POINT
  8
SIZE
 62
    30
 10
224.3250000000007
 20
147.2721403711287
 30
0.0
  0
ENDBLK
  8
SIZE
  0
BLOCK
  8
SIZE
  2
SD18
 70
     0
 10
0.0
 20
0.0
 30
0.0
  3
SD18
  1
*D18
  0
LINE
  8
SIZE
 10
471.2249999999994
 20
-168.89974813549929
 30
0.0
 11
471.22499999999928
 21
-697.92399905064008
 31
0.0
  0
LINE
  8
SIZE
 10
400.02500000000049
 20
-300.39966375119872
 30
0.0
 11
400.02500000000049
 21
-697.92399905064008
 31
0.0
  0
LINE
  8
SIZE
 10
370.02500000000049
 20
-677.92399905063996
 30
0.0
 11
340.02500000000049
 21
-677.92399905063996
 31
0.0
  0
LINE
  8
SIZE
 10
501.22499999999928
 20
-677.92399905063996
 30
0.0
 11
611.22499999999945
 21
-677.92399905063996
 31
0.0
  0
LINE
  8
SIZE
 10
400.02500000000049
 20
-677.92399905063996
 30
0.0
 11
471.22499999999928
 21
-677.92399905063996
 31
0.0
  0
INSERT
  8
SIZE
  2
_OPEN30
 10
400.02500000000049
 20
-677.92399905063996
 30
0.0
 41
30.0
 42
30.0
 43
30.0
  0
INSERT
  8
SIZE
  2
_OPEN30
 10
471.22499999999928
 20
-677.92399905063996
 30
0.0
 41
30.0
 42
30.0
 43
30.0
 50
180.0
  0
INSERT
  8
SIZE
  2
MTEXT_14
 10
0.0
 20
0.0
 30
0.0
 41
1.0
 42
1.0
 43
1.0
 50
0.0
210
0.0
220
0.0
230
1.0
  0
POINT
  8
SIZE
 62
    30
 10
471.2249999999994
 20
-168.89974813549929
 30
0.0
  0
POINT
  8
SIZE
 62
    30
 10
400.02500000000049
 20
-300.39966375119872
 30
0.0
  0
POINT
  8
SIZE
 62
    30
 10
400.02500000000049
 20
-677.92399905063996
 30
0.0
  0
ENDBLK
  8
SIZE
  0
BLOCK
  8
SIZE
  2
SD19
 70
     0
 10
0.0
 20
0.0
 30
0.0
  3
SD19
  1
*D19
  0
LINE
  8
SIZE
 10
400.02500000000049
 20
-300.39974813549952
 30
0.0
 11
400.02500000000049
 21
-697.92399905064008
 31
0.0
  0
LINE
  8
SIZE
 10
-399.97499999999951
 20
-295.87592587823099
 30
0.0
 11
-399.97499999999951
 21
-697.92399905064008
 31
0.0
  0
LINE
  8
SIZE
 10
370.02500000000049
 20
-677.92399905063996
 30
0.0
 11
-369.9749999999994
 21
-677.92399905063996
 31
0.0
  0
INSERT
  8
SIZE
  2
_OPEN30
 10
400.02500000000049
 20
-677.92399905063996
 30
0.0
 41
30.0
 42
30.0
 43
30.0
  0
INSERT
  8
SIZE
  2
_OPEN30
 10
-399.97499999999951
 20
-677.92399905063996
 30
0.0
 41
30.0
 42
30.0
 43
30.0
 50
180.0
  0
INSERT
  8
SIZE
  2
MTEXT_15
 10
0.0
 20
0.0
 30
0.0
 41
1.0
 42
1.0
 43
1.0
 50
0.0
210
0.0
220
0.0
230
1.0
  0
POINT
  8
SIZE
 62
    30
 10
400.02500000000049
 20
-300.39974813549952
 30
0.0
  0
POINT
  8
SIZE
 62
    30
 10
-399.97499999999951
 20
-295.87592587823099
 30
0.0
  0
POINT
  8
SIZE
 62
    30
 10
-399.97499999999951
 20
-677.92399905063996
 30
0.0
  0
ENDBLK
  8
SIZE
  0
BLOCK
  8
SIZE
  2
SD20
 70
     0
 10
0.0
 20
0.0
 30
0.0
  3
SD20
  1
*D20
  0
LINE
  8
SIZE
 10
-384.97492272816999
 20
-30.499748135698379
 30
0.0
 11
-904.00806169547252
 21
-30.499748135698241
 31
0.0
  0
LINE
  8
SIZE
 10
-379.97491561569859
 20
-320.39974813549929
 30
0.0
 11
-904.00806169547263
 21
-320.39974813549912
 31
0.0
  0
LINE
  8
SIZE
 10
-884.00806169547252
 20
-60.499748135698241
 30
0.0
 11
-884.00806169547252
 21
-290.39974813549912
 31
0.0
  0
INSERT
  8
SIZE
  2
_OPEN30
 10
-884.00806169547252
 20
-30.499748135698241
 30
0.0
 41
30.0
 42
30.0
 43
30.0
 50
90.0
  0
INSERT
  8
SIZE
  2
_OPEN30
 10
-884.00806169547252
 20
-320.39974813549912
 30
0.0
 41
30.0
 42
30.0
 43
30.0
 50
270.0
  0
INSERT
  8
SIZE
  2
MTEXT_16
 10
0.0
 20
0.0
 30
0.0
 41
1.0
 42
1.0
 43
1.0
 50
0.0
210
0.0
220
0.0
230
1.0
  0
POINT
  8
SIZE
 62
    30
 10
-384.97492272816999
 20
-30.499748135698379
 30
0.0
  0
POINT
  8
SIZE
 62
    30
 10
-379.97491561569859
 20
-320.39974813549929
 30
0.0
  0
POINT
  8
SIZE
 62
    30
 10
-884.00806169547252
 20
-320.39974813549912
 30
0.0
  0
ENDBLK
  8
SIZE
  0
BLOCK
  8
SIZE
  2
SD21
 70
     0
 10
0.0
 20
0.0
 30
0.0
  3
SD21
  1
*D21
  0
LINE
  8
SIZE
 10
281.6249999999996
 20
-66.099748135498643
 30
0.0
 11
-603.10806169547266
 21
-66.099748135498416
 31
0.0
  0
LINE
  8
SIZE
 10
-384.97492272816999
 20
-30.499748135698379
 30
0.0
 11
-603.10806169547266
 21
-30.499748135698319
 31
0.0
  0
LINE
  8
SIZE
 10
-583.10806169547277
 20
-96.099748135498416
 30
0.0
 11
-583.10806169547277
 21
-126.0997481354984
 31
0.0
  0
LINE
  8
SIZE
 10
-583.10806169547277
 20
-0.4997481356983278
 30
0.0
 11
-583.10806169547277
 21
112.5002518643021
 31
0.0
  0
LINE
  8
SIZE
 10
-583.10806169547277
 20
-66.099748135498416
 30
0.0
 11
-583.10806169547277
 21
-30.499748135698329
 31
0.0
  0
INSERT
  8
SIZE
  2
_OPEN30
 10
-583.10806169547277
 20
-66.099748135498416
 30
0.0
 41
30.0
 42
30.0
 43
30.0
 50
90.0
  0
INSERT
  8
SIZE
  2
_OPEN30
 10
-583.10806169547277
 20
-30.499748135698329
 30
0.0
 41
30.0
 42
30.0
 43
30.0
 50
270.0
  0
INSERT
  8
SIZE
  2
MTEXT_17
 10
0.0
 20
0.0
 30
0.0
 41
1.0
 42
1.0
 43
1.0
 50
0.0
210
0.0
220
0.0
230
1.0
  0
POINT
  8
SIZE
 62
    30
 10
281.6249999999996
 20
-66.099748135498643
 30
0.0
  0
POINT
  8
SIZE
 62
    30
 10
-384.97492272816999
 20
-30.499748135698379
 30
0.0
  0
POINT
  8
SIZE
 62
    30
 10
-583.10806169547277
 20
-30.499748135698329
 30
0.0
  0
ENDBLK
  8
SIZE
  0
BLOCK
  8
SIZE
  2
SD22
 70
     0
 10
0.0
 20
0.0
 30
0.0
  3
SD22
  1
*D22
  0
LINE
  8
SIZE
 10
-399.97499999999951
 20
-45.499748135499431
 30
0.0
 11
-399.97499999999951
 21
367.97588242130291
 31
0.0
  0
LINE
  8
SIZE
 10
120.6249999999995
 20
-66.099748135498643
 30
0.0
 11
120.6249999999996
 21
367.97588242130291
 31
0.0
  0
LINE
  8
SIZE
 10
-369.9749999999994
 20
347.97588242130291
 30
0.0
 11
90.624999999999574
 21
347.97588242130291
 31
0.0
  0
INSERT
  8
SIZE
  2
_OPEN30
 10
-399.97499999999951
 20
347.97588242130291
 30
0.0
 41
30.0
 42
30.0
 43
30.0
 50
180.0
  0
INSERT
  8
SIZE
  2
_OPEN30
 10
120.6249999999996
 20
347.97588242130291
 30
0.0
 41
30.0
 42
30.0
 43
30.0
  0
INSERT
  8
SIZE
  2
MTEXT_18
 10
0.0
 20
0.0
 30
0.0
 41
1.0
 42
1.0
 43
1.0
 50
0.0
210
0.0
220
0.0
230
1.0
  0
POINT
  8
SIZE
 62
    30
 10
-399.97499999999951
 20
-45.499748135499431
 30
0.0
  0
POINT
  8
SIZE
 62
    30
 10
120.6249999999995
 20
-66.099748135498643
 30
0.0
  0
POINT
  8
SIZE
 62
    30
 10
120.6249999999996
 20
347.97588242130291
 30
0.0
  0
ENDBLK
  8
SIZE
  0
BLOCK
  8
SIZE
  2
SD23
 70
     0
 10
0.0
 20
0.0
 30
0.0
  3
SD23
  1
*D23
  0
LINE
  8
SIZE
 10
120.6249999999995
 20
-66.099748135498643
 30
0.0
 11
120.6249999999996
 21
367.97588242130291
 31
0.0
  0
LINE
  8
SIZE
 10
281.6249999999996
 20
-66.099748135498643
 30
0.0
 11
281.6249999999996
 21
367.97588242130291
 31
0.0
  0
LINE
  8
SIZE
 10
150.6249999999996
 20
347.97588242130291
 30
0.0
 11
251.62499999999949
 21
347.97588242130291
 31
0.0
  0
INSERT
  8
SIZE
  2
_OPEN30
 10
120.6249999999996
 20
347.97588242130291
 30
0.0
 41
30.0
 42
30.0
 43
30.0
 50
180.0
  0
INSERT
  8
SIZE
  2
_OPEN30
 10
281.6249999999996
 20
347.97588242130291
 30
0.0
 41
30.0
 42
30.0
 43
30.0
  0
INSERT
  8
SIZE
  2
MTEXT_19
 10
0.0
 20
0.0
 30
0.0
 41
1.0
 42
1.0
 43
1.0
 50
0.0
210
0.0
220
0.0
230
1.0
  0
POINT
  8
SIZE
 62
    30
 10
120.6249999999995
 20
-66.099748135498643
 30
0.0
  0
POINT
  8
SIZE
 62
    30
 10
281.6249999999996
 20
-66.099748135498643
 30
0.0
  0
POINT
  8
SIZE
 62
    30
 10
281.6249999999996
 20
347.97588242130291
 30
0.0
  0
ENDBLK
  8
SIZE
  0
BLOCK
  8
SIZE
  2
SD24
 70
     0
 10
0.0
 20
0.0
 30
0.0
  3
SD24
  1
*D24
  0
LINE
  8
SIZE
 10
-361.3750000000004
 20
-121.0997481354986
 30
0.0
 11
-803.70806169547257
 21
-121.0997481354985
 31
0.0
  0
LINE
  8
SIZE
 10
-384.97492272816999
 20
-30.499748135698379
 30
0.0
 11
-803.70806169547257
 21
-30.499748135698269
 31
0.0
  0
LINE
  8
SIZE
 10
-783.70806169547257
 20
-91.099748135498544
 30
0.0
 11
-783.70806169547257
 21
-60.499748135698269
 31
0.0
  0
LINE
  8
SIZE
 10
-783.70806169547257
 20
-30.499748135698269
 30
0.0
 11
-783.70806169547257
 21
82.500251864302186
 31
0.0
  0
INSERT
  8
SIZE
  2
_OPEN30
 10
-783.70806169547257
 20
-121.0997481354985
 30
0.0
 41
30.0
 42
30.0
 43
30.0
 50
270.0
  0
INSERT
  8
SIZE
  2
_OPEN30
 10
-783.70806169547257
 20
-30.499748135698269
 30
0.0
 41
30.0
 42
30.0
 43
30.0
 50
90.0
  0
INSERT
  8
SIZE
  2
MTEXT_20
 10
0.0
 20
0.0
 30
0.0
 41
1.0
 42
1.0
 43
1.0
 50
0.0
210
0.0
220
0.0
230
1.0
  0
POINT
  8
SIZE
 62
    30
 10
-361.3750000000004
 20
-121.0997481354986
 30
0.0
  0
POINT
  8
SIZE
 62
    30
 10
-384.97492272816999
 20
-30.499748135698379
 30
0.0
  0
POINT
  8
SIZE
 62
    30
 10
-783.70806169547257
 20
-30.499748135698269
 30
0.0
  0
ENDBLK
  8
SIZE
  0
BLOCK
  8
SIZE
  2
SD25
 70
     0
 10
0.0
 20
0.0
 30
0.0
  3
SD25
  1
*D25
  0
LINE
  8
SIZE
 10
-399.97499999999951
 20
-45.499748135499431
 30
0.0
 11
-399.97499999999951
 21
167.375882421303
 31
0.0
  0
LINE
  8
SIZE
 10
-361.3750000000004
 20
-121.0997481354986
 30
0.0
 11
-361.3750000000004
 21
167.375882421303
 31
0.0
  0
LINE
  8
SIZE
 10
-429.97499999999951
 20
147.375882421303
 30
0.0
 11
-459.9749999999994
 21
147.375882421303
 31
0.0
  0
LINE
  8
SIZE
 10
-331.37500000000051
 20
147.375882421303
 30
0.0
 11
-218.37500000000051
 21
147.375882421303
 31
0.0
  0
LINE
  8
SIZE
 10
-399.97499999999951
 20
147.375882421303
 30
0.0
 11
-361.3750000000004
 21
147.375882421303
 31
0.0
  0
INSERT
  8
SIZE
  2
_OPEN30
 10
-399.97499999999951
 20
147.375882421303
 30
0.0
 41
30.0
 42
30.0
 43
30.0
  0
INSERT
  8
SIZE
  2
_OPEN30
 10
-361.3750000000004
 20
147.375882421303
 30
0.0
 41
30.0
 42
30.0
 43
30.0
 50
180.0
  0
INSERT
  8
SIZE
  2
MTEXT_21
 10
0.0
 20
0.0
 30
0.0
 41
1.0
 42
1.0
 43
1.0
 50
0.0
210
0.0
220
0.0
230
1.0
  0
POINT
  8
SIZE
 62
    30
 10
-399.97499999999951
 20
-45.499748135499431
 30
0.0
  0
POINT
  8
SIZE
 62
    30
 10
-361.3750000000004
 20
-121.0997481354986
 30
0.0
  0
POINT
  8
SIZE
 62
    30
 10
-361.3750000000004
 20
147.375882421303
 30
0.0
  0
ENDBLK
  8
SIZE
  0
BLOCK
  8
SIZE
  2
MTEXT_0
 70
     0
 10
0.0
 20
0.0
  3
MTEXT_0
  0
TEXT
  8
SIZE
 10
-280.42499999999939
 20
257.67588242130302
 30
0.0
 40
30.0
  1
327.3
 41
0.7
  7
STANDARD
 71
     0
 72
     1
 11
-236.32499999999939
 21
257.67588242130302
 31
0.0
210
0.0
220
0.0
230
1.0
  0
ENDBLK
  8
SIZE
  0
BLOCK
  8
SIZE
  2
MTEXT_1
 70
     0
 10
0.0
 20
0.0
  3
MTEXT_1
  0
TEXT
  8
SIZE
 10
-693.40806169547272
 20
36.955251864500369
 30
0.0
 40
30.0
  1
43.5
 50
90.0
 41
0.7
  7
STANDARD
 71
     0
 72
     1
 11
-693.40806169547272
 21
71.500251864500328
 31
0.0
210
0.0
220
0.0
230
1.0
  0
ENDBLK
  8
SIZE
  0
BLOCK
  8
SIZE
  2
MTEXT_2
 70
     0
 10
0.0
 20
0.0
  3
MTEXT_2
  0
TEXT
  8
SIZE
 10
-593.07890555644917
 20
-426.73474813549956
 30
0.0
 40
30.0
  1
83.5
 50
90.0
 41
0.7
  7
STANDARD
 71
     0
 72
     1
 11
-593.07890555644917
 21
-392.39974813549952
 31
0.0
210
0.0
220
0.0
230
1.0
  0
ENDBLK
  8
SIZE
  0
BLOCK
  8
SIZE
  2
MTEXT_3
 70
     0
 10
0.0
 20
0.0
  3
MTEXT_3
  0
TEXT
  8
SIZE
 10
-280.42499999999939
 20
-518.43980551461277
 30
0.0
 40
30.0
  1
327.3
 41
0.7
  7
STANDARD
 71
     0
 72
     1
 11
-236.32499999999939
 21
-518.43980551461277
 31
0.0
210
0.0
220
0.0
230
1.0
  0
ENDBLK
  8
SIZE
  0
BLOCK
  8
SIZE
  2
MTEXT_4
 70
     0
 10
0.0
 20
0.0
  3
MTEXT_4
  0
TEXT
  8
SIZE
 10
-375.005
 20
-594.07107775751194
 30
0.0
 40
30.0
  1
89
 41
0.7
  7
STANDARD
 71
     0
 72
     1
 11
-355.47500000000002
 21
-594.07107775751194
 31
0.0
210
0.0
220
0.0
230
1.0
  0
ENDBLK
  8
SIZE
  0
BLOCK
  8
SIZE
  2
MTEXT_5
 70
     0
 10
0.0
 20
0.0
  3
MTEXT_5
  0
TEXT
  8
SIZE
 10
-83.380000000000834
 20
-594.07107775751194
 30
0.0
 40
30.0
  1
510
 41
0.7
  7
STANDARD
 71
     0
 72
     1
 11
-55.975000000000833
 21
-594.07107775751194
 31
0.0
210
0.0
220
0.0
230
1.0
  0
ENDBLK
  8
SIZE
  0
BLOCK
  8
SIZE
  2
MTEXT_6
 70
     0
 10
0.0
 20
0.0
  3
MTEXT_6
  0
TEXT
  8
SIZE
 10
272.11999999999983
 20
-594.07107775751194
 30
0.0
 40
30.0
  1
201
 41
0.7
  7
STANDARD
 71
     0
 72
     1
 11
299.52499999999981
 21
-594.07107775751194
 31
0.0
210
0.0
220
0.0
230
1.0
  0
ENDBLK
  8
SIZE
  0
BLOCK
  8
SIZE
  2
MTEXT_7
 70
     0
 10
0.0
 20
0.0
  3
MTEXT_7
  0
TEXT
  8
SIZE
 10
485.19000000000005
 20
-594.07107775751194
 30
0.0
 40
30.0
  1
17.9
 41
0.7
  7
STANDARD
 71
     0
 72
     1
 11
517.42500000000007
 21
-594.07107775751194
 31
0.0
210
0.0
220
0.0
230
1.0
  0
ENDBLK
  8
SIZE
  0
BLOCK
  8
SIZE
  2
MTEXT_8
 70
     0
 10
0.0
 20
0.0
  3
MTEXT_8
  0
TEXT
  8
SIZE
 10
707.57632683337772
 20
-469.74474813549944
 30
0.0
 40
30.0
  1
16.4
 50
90.0
 41
0.7
  7
STANDARD
 71
     0
 72
     1
 11
707.57632683337772
 21
-437.29974813549939
 31
0.0
210
0.0
220
0.0
230
1.0
  0
ENDBLK
  8
SIZE
  0
BLOCK
  8
SIZE
  2
MTEXT_9
 70
     0
 10
0.0
 20
0.0
  3
MTEXT_9
  0
TEXT
  8
SIZE
 10
781.21331617348005
 20
-484.04474813549967
 30
0.0
 40
30.0
  1
14.8
 50
90.0
 41
0.7
  7
STANDARD
 71
     0
 72
     1
 11
781.21331617348005
 21
-451.59974813549962
 31
0.0
210
0.0
220
0.0
230
1.0
  0
ENDBLK
  8
SIZE
  0
BLOCK
  8
SIZE
  2
MTEXT_10
 70
     0
 10
0.0
 20
0.0
  3
MTEXT_10
  0
TEXT
  8
SIZE
 10
781.21331617347778
 20
-222.54974813549941
 30
0.0
 40
30.0
  1
312.5
 50
90.0
 41
0.7
  7
STANDARD
 71
     0
 72
     1
 11
781.21331617347778
 21
-180.54974813549941
 31
0.0
210
0.0
220
0.0
230
1.0
  0
ENDBLK
  8
SIZE
  0
BLOCK
  8
SIZE
  2
MTEXT_11
 70
     0
 10
0.0
 20
0.0
  3
MTEXT_11
  0
TEXT
  8
SIZE
 10
781.21331617347676
 20
67.455251864500141
 30
0.0
 40
30.0
  1
24.3
 50
90.0
 41
0.7
  7
STANDARD
 71
     0
 72
     1
 11
781.21331617347676
 21
102.0002518645001
 31
0.0
210
0.0
220
0.0
230
1.0
  0
ENDBLK
  8
SIZE
  0
BLOCK
  8
SIZE
  2
MTEXT_12
 70
     0
 10
0.0
 20
0.0
  3
MTEXT_12
  0
TEXT
  8
SIZE
 10
857.78354210022394
 20
-217.7998740677497
 30
0.0
 40
30.0
  1
351.6
 50
90.0
 41
0.7
  7
STANDARD
 71
     0
 72
     1
 11
857.78354210022394
 21
-175.7998740677497
 31
0.0
210
0.0
220
0.0
230
1.0
  0
ENDBLK
  8
SIZE
  0
BLOCK
  8
SIZE
  2
MTEXT_13
 70
     0
 10
0.0
 20
0.0
  3
MTEXT_13
  0
TEXT
  8
SIZE
 10
291.28000000000071
 20
157.2721403711287
 30
0.0
 40
30.0
  1
50.6
 41
0.7
  7
STANDARD
 71
     0
 72
     1
 11
325.82500000000073
 21
157.2721403711287
 31
0.0
210
0.0
220
0.0
230
1.0
  0
ENDBLK
  8
SIZE
  0
BLOCK
  8
SIZE
  2
MTEXT_14
 70
     0
 10
0.0
 20
0.0
  3
MTEXT_14
  0
TEXT
  8
SIZE
 10
538.98999999999944
 20
-667.92399905063996
 30
0.0
 40
30.0
  1
71.2
 41
0.7
  7
STANDARD
 71
     0
 72
     1
 11
571.22499999999945
 21
-667.92399905063996
 31
0.0
210
0.0
220
0.0
230
1.0
  0
ENDBLK
  8
SIZE
  0
BLOCK
  8
SIZE
  2
MTEXT_15
 70
     0
 10
0.0
 20
0.0
  3
MTEXT_15
  0
TEXT
  8
SIZE
 10
-29.689999999999454
 20
-667.92399905063996
 30
0.0
 40
30.0
  1
800
 41
0.7
  7
STANDARD
 71
     0
 72
     1
 11
0.0250000000005457
 21
-667.92399905063996
 31
0.0
210
0.0
220
0.0
230
1.0
  0
ENDBLK
  8
SIZE
  0
BLOCK
  8
SIZE
  2
MTEXT_16
 70
     0
 10
0.0
 20
0.0
  3
MTEXT_16
  0
TEXT
  8
SIZE
 10
-894.00806169547252
 20
-204.95474813559881
 30
0.0
 40
30.0
  1
290
 50
90.0
 41
0.7
  7
STANDARD
 71
     0
 72
     1
 11
-894.00806169547252
 21
-175.44974813559881
 31
0.0
210
0.0
220
0.0
230
1.0
  0
ENDBLK
  8
SIZE
  0
BLOCK
  8
SIZE
  2
MTEXT_17
 70
     0
 10
0.0
 20
0.0
  3
MTEXT_17
  0
TEXT
  8
SIZE
 10
-593.10806169547277
 20
36.665251864302036
 30
0.0
 40
30.0
  1
35.6
 50
90.0
 41
0.7
  7
STANDARD
 71
     0
 72
     1
 11
-593.10806169547277
 21
71.000251864302072
 31
0.0
210
0.0
220
0.0
230
1.0
  0
ENDBLK
  8
SIZE
  0
BLOCK
  8
SIZE
  2
MTEXT_18
 70
     0
 10
0.0
 20
0.0
  3
MTEXT_18
  0
TEXT
  8
SIZE
 10
-183.9849999999999
 20
357.97588242130291
 30
0.0
 40
30.0
  1
520.6
 41
0.7
  7
STANDARD
 71
     0
 72
     1
 11
-139.6749999999999
 21
357.97588242130291
 31
0.0
210
0.0
220
0.0
230
1.0
  0
ENDBLK
  8
SIZE
  0
BLOCK
  8
SIZE
  2
MTEXT_19
 70
     0
 10
0.0
 20
0.0
  3
MTEXT_19
  0
TEXT
  8
SIZE
 10
176.02999999999949
 20
357.97588242130291
 30
0.0
 40
30.0
  1
161
 41
0.7
  7
STANDARD
 71
     0
 72
     1
 11
201.12499999999949
 21
357.97588242130291
 31
0.0
210
0.0
220
0.0
230
1.0
  0
ENDBLK
  8
SIZE
  0
BLOCK
  8
SIZE
  2
MTEXT_20
 70
     0
 10
0.0
 20
0.0
  3
MTEXT_20
  0
TEXT
  8
SIZE
 10
-793.70806169547268
 20
6.4552518643021131
 30
0.0
 40
30.0
  1
90.6
 50
90.0
 41
0.7
  7
STANDARD
 71
     0
 72
     1
 11
-793.70806169547268
 21
41.000251864302072
 31
0.0
210
0.0
220
0.0
230
1.0
  0
ENDBLK
  8
SIZE
  0
BLOCK
  8
SIZE
  2
MTEXT_21
 70
     0
 10
0.0
 20
0.0
  3
MTEXT_21
  0
TEXT
  8
SIZE
 10
-294.21000000000049
 20
157.375882421303
 30
0.0
 40
30.0
  1
38.6
 41
0.7
  7
STANDARD
 71
     0
 72
     1
 11
-259.87500000000051
 21
157.375882421303
 31
0.0
210
0.0
220
0.0
230
1.0
  0
ENDBLK
  8
SIZE
  0
ENDSEC
  0
SECTION
  2
ENTITIES
  0
LINE
  8
SERVICESPACE
  6
AM_ISO02W050
 62
     2
 10
-474.9749999999994
 20
-351.59974813549962
 30
0.0
 11
-474.9749999999994
 21
49.500251864500797
 31
0.0
  0
LINE
  8
SERVICESPACE
  6
AM_ISO02W050
 62
     2
 10
650.02500000000055
 20
-351.59974813549962
 30
0.0
 11
650.025000000001
 21
49.500251864500342
 31
0.0
  0
LINE
  8
DETAIL
  6
CONTINUOUS
 62
     5
 10
224.32499999999891
 20
-341.59974813549962
 30
0.0
 11
224.32499999999891
 21
-266.89974813549929
 31
0.0
  0
LINE
  8
DETAIL
  6
CONTINUOUS
 62
     5
 10
224.32500000000121
 20
-84.699748135499007
 30
0.0
 11
224.32500000000121
 21
-9.9997481354998854
 31
0.0
  0
LINE
  8
DETAIL
  6
CONTINUOUS
 62
     5
 10
214.32500000000121
 20
-1.7997481354993849
 30
0.0
 11
214.32500000000121
 21
0.0000000000002274
 31
0.0
  0
LINE
  8
DETAIL
  6
CONTINUOUS
 62
     5
 10
214.32499999999891
 20
-349.79974813549887
 30
0.0
 11
214.32499999999891
 21
-351.5994962709986
 31
0.0
  0
LINE
  8
DETAIL
  6
CONTINUOUS
 62
     5
 10
205.02500000000049
 20
-338.7997481354987
 30
0.0
 11
205.02500000000049
 21
-334.79974813549887
 31
0.0
  0
LINE
  8
DETAIL
  6
CONTINUOUS
 62
     5
 10
205.02500000000049
 20
-24.299748135499389
 30
0.0
 11
205.02500000000049
 21
-4.7997481355000673
 31
0.0
  0
LINE
  8
BASIS
  6
CENTER
 62
     6
 10
199.02499999999921
 20
-336.79974813549939
 30
0.0
 11
199.02499999999921
 21
-321.7996481354985
 31
0.0
  0
LINE
  8
BASIS
  6
CENTER
 62
     6
 10
199.02499999999921
 20
-24.299748135499389
 30
0.0
 11
199.02499999999921
 21
-9.2996481354996376
 31
0.0
  0
LINE
  8
BASIS
  6
CENTER
 62
     6
 10
199.02499999999921
 20
-24.299748135499389
 30
0.0
 11
199.02499999999921
 21
-321.7996481354985
 31
0.0
  0
LINE
  8
BASIS
  6
CENTER
 62
     6
 10
199.02499999999921
 20
-336.79974813549939
 30
0.0
 11
199.02499999999921
 21
-351.79984813549908
 31
0.0
  0
LINE
  8
DETAIL
  6
CONTINUOUS
 62
     5
 10
193.02500000000009
 20
-4.7997481355000673
 30
0.0
 11
193.02500000000009
 21
-24.299748135499389
 31
0.0
  0
LINE
  8
DETAIL
  6
CONTINUOUS
 62
     5
 10
193.02500000000009
 20
-334.79974813549887
 30
0.0
 11
193.02500000000009
 21
-338.7997481354987
 31
0.0
  0
LINE
  8
DETAIL
  6
CONTINUOUS
 62
     5
 10
214.32500000000121
 20
-1.7997481354993849
 30
0.0
 11
208.02500000000009
 21
-1.7997481354993849
 31
0.0
  0
LINE
  8
DETAIL
  6
CONTINUOUS
 62
     5
 10
190.02500000000049
 20
-1.7997481354993849
 30
0.0
 11
183.7249999999994
 21
-1.7997481354993849
 31
0.0
  0
LINE
  8
DETAIL
  6
CONTINUOUS
 62
     5
 10
-295.67499999999882
 20
-1.7997481354993849
 30
0.0
 11
-301.97499999999991
 21
-1.7997481354993849
 31
0.0
  0
LINE
  8
DETAIL
  6
CONTINUOUS
 62
     5
 10
-319.9749999999994
 20
-1.7997481354993849
 30
0.0
 11
-326.27500000000049
 21
-1.7997481354993849
 31
0.0
  0
LINE
  8
DETAIL
  6
CONTINUOUS
 62
     5
 10
183.7249999999994
 20
-1.7997481354993849
 30
0.0
 11
183.7249999999994
 21
0.0000000000002274
 31
0.0
  0
LINE
  8
DETAIL
  6
CONTINUOUS
 62
     5
 10
183.7249999999994
 20
-349.79974813549887
 30
0.0
 11
183.7249999999994
 21
-351.5994962709986
 31
0.0
  0
LINE
  8
DETAIL
  6
CONTINUOUS
 62
     5
 10
173.7249999999994
 20
-9.9997481354998854
 30
0.0
 11
173.7249999999994
 21
-84.699748135499007
 31
0.0
  0
LINE
  8
DETAIL
  6
CONTINUOUS
 62
     5
 10
173.7249999999994
 20
-266.89974813549929
 30
0.0
 11
173.7249999999994
 21
-341.59974813549962
 31
0.0
  0
LINE
  8
BASIS
  6
CENTER
 62
     6
 10
-310.97500000000082
 20
-24.299748135499389
 30
0.0
 11
-295.9748999999988
 21
-24.299748135499389
 31
0.0
  0
LINE
  8
BASIS
  6
CENTER
 62
     6
 10
199.02499999999921
 20
-24.299748135499389
 30
0.0
 11
214.0251000000012
 21
-24.299748135499389
 31
0.0
  0
LINE
  8
BASIS
  6
CENTER
 62
     6
 10
199.02499999999921
 20
-24.299748135499389
 30
0.0
 11
184.02489999999941
 21
-24.299748135499389
 31
0.0
  0
LINE
  8
BASIS
  6
CENTER
 62
     6
 10
-310.97500000000082
 20
-24.299748135499389
 30
0.0
 11
-325.97510000000062
 21
-24.299748135499389
 31
0.0
  0
LINE
  8
DETAIL
  6
CONTINUOUS
 62
     5
 10
-326.27500000000049
 20
-94.699748135499007
 30
0.0
 11
-295.67499999999882
 21
-94.699748135499007
 31
0.0
  0
LINE
  8
DETAIL
  6
CONTINUOUS
 62
     5
 10
183.7249999999994
 20
-94.699748135499007
 30
0.0
 11
214.32500000000121
 21
-94.699748135499007
 31
0.0
  0
LINE
  8
DETAIL
  6
CONTINUOUS
 62
     5
 10
214.32499999999891
 20
-256.89974813549929
 30
0.0
 11
183.7249999999994
 21
-256.89974813549929
 31
0.0
  0
LINE
  8
DETAIL
  6
CONTINUOUS
 62
     5
 10
-295.67500000000109
 20
-256.89974813549929
 30
0.0
 11
-326.27500000000049
 21
-256.89974813549929
 31
0.0
  0
LINE
  8
BASIS
  6
CENTER
 62
     6
 10
-310.97500000000082
 20
-336.79974813549939
 30
0.0
 11
-295.97490000000113
 21
-336.79974813549939
 31
0.0
  0
LINE
  8
BASIS
  6
CENTER
 62
     6
 10
199.02499999999921
 20
-336.79974813549939
 30
0.0
 11
214.0250999999989
 21
-336.79974813549939
 31
0.0
  0
LINE
  8
BASIS
  6
CENTER
 62
     6
 10
199.02499999999921
 20
-336.79974813549939
 30
0.0
 11
184.02489999999941
 21
-336.79974813549939
 31
0.0
  0
LINE
  8
BASIS
  6
CENTER
 62
     6
 10
-310.97500000000082
 20
-336.79974813549939
 30
0.0
 11
-325.97510000000062
 21
-336.79974813549939
 31
0.0
  0
LINE
  8
DETAIL
  6
CONTINUOUS
 62
     5
 10
214.32499999999891
 20
-349.79974813549887
 30
0.0
 11
183.7249999999994
 21
-349.79974813549887
 31
0.0
  0
LINE
  8
DETAIL
  6
CONTINUOUS
 62
     5
 10
-295.67500000000109
 20
-349.79974813549887
 30
0.0
 11
-326.27500000000049
 21
-349.79974813549887
 31
0.0
  0
LINE
  8
DETAIL
  6
CONTINUOUS
 62
     5
 10
-285.67500000000109
 20
-341.59974813549962
 30
0.0
 11
-285.67500000000109
 21
-266.89974813549929
 31
0.0
  0
LINE
  8
DETAIL
  6
CONTINUOUS
 62
     5
 10
-285.67499999999882
 20
-84.699748135499007
 30
0.0
 11
-285.67499999999882
 21
-9.9997481354998854
 31
0.0
  0
LINE
  8
DETAIL
  6
CONTINUOUS
 62
     5
 10
-295.67499999999882
 20
-1.7997481354993849
 30
0.0
 11
-295.67499999999882
 21
0.0000000000002274
 31
0.0
  0
LINE
  8
DETAIL
  6
CONTINUOUS
 62
     5
 10
-295.67500000000109
 20
-349.79974813549887
 30
0.0
 11
-295.67500000000109
 21
-351.5994962709986
 31
0.0
  0
LINE
  8
DETAIL
  6
CONTINUOUS
 62
     5
 10
-304.97499999999951
 20
-338.7997481354987
 30
0.0
 11
-304.97499999999951
 21
-334.79974813549887
 31
0.0
  0
LINE
  8
DETAIL
  6
CONTINUOUS
 62
     5
 10
-304.97499999999951
 20
-24.299748135499389
 30
0.0
 11
-304.97499999999951
 21
-4.7997481355000673
 31
0.0
  0
LINE
  8
BASIS
  6
CENTER
 62
     6
 10
-310.97500000000082
 20
-336.79974813549939
 30
0.0
 11
-310.97500000000082
 21
-321.7996481354985
 31
0.0
  0
LINE
  8
BASIS
  6
CENTER
 62
     6
 10
-310.97500000000082
 20
-24.299748135499389
 30
0.0
 11
-310.97500000000082
 21
-9.2996481354996376
 31
0.0
  0
LINE
  8
BASIS
  6
CENTER
 62
     6
 10
-310.97500000000082
 20
-24.299748135499389
 30
0.0
 11
-310.97500000000082
 21
-323.8560390691826
 31
0.0
  0
LINE
  8
BASIS
  6
CENTER
 62
     6
 10
-310.97500000000082
 20
-336.79974813549939
 30
0.0
 11
-310.97500000000082
 21
-351.79984813549908
 31
0.0
  0
LINE
  8
DETAIL
  6
CONTINUOUS
 62
     5
 10
-316.97499999999991
 20
-4.7997481355000673
 30
0.0
 11
-316.97499999999991
 21
-24.299748135499389
 31
0.0
  0
LINE
  8
DETAIL
  6
CONTINUOUS
 62
     5
 10
-316.97499999999991
 20
-334.79974813549887
 30
0.0
 11
-316.97499999999991
 21
-338.7997481354987
 31
0.0
  0
LINE
  8
DETAIL
  6
CONTINUOUS
 62
     5
 10
-326.27500000000049
 20
-1.7997481354993849
 30
0.0
 11
-326.27500000000049
 21
0.0000000000002274
 31
0.0
  0
LINE
  8
DETAIL
  6
CONTINUOUS
 62
     5
 10
-326.27500000000049
 20
-349.79974813549887
 30
0.0
 11
-326.27500000000049
 21
-351.5994962709986
 31
0.0
  0
LINE
  8
DETAIL
  6
CONTINUOUS
 62
     5
 10
-336.27500000000049
 20
-9.9997481354998854
 30
0.0
 11
-336.27500000000049
 21
-84.699748135499007
 31
0.0
  0
LINE
  8
DETAIL
  6
CONTINUOUS
 62
     5
 10
-336.27500000000049
 20
-266.89974813549929
 30
0.0
 11
-336.27500000000049
 21
-341.59974813549962
 31
0.0
  0
ARC
  8
DETAIL
  6
CONTINUOUS
 62
     5
 10
-295.67499999999882
 20
-9.9997481354998854
 30
0.0
 40
10.0
 50
0.0
 51
90.0
  0
ARC
  8
DETAIL
  6
CONTINUOUS
 62
     5
 10
-295.67499999999882
 20
-84.699748135499007
 30
0.0
 40
10.0
 50
270.0
 51
0.0
  0
ARC
  8
DETAIL
  6
CONTINUOUS
 62
     5
 10
-326.27500000000049
 20
-84.699748135499007
 30
0.0
 40
10.0
 50
180.0
 51
270.0
  0
ARC
  8
DETAIL
  6
CONTINUOUS
 62
     5
 10
-326.27500000000049
 20
-9.9997481354998854
 30
0.0
 40
10.0
 50
90.0
 51
180.0
  0
ARC
  8
DETAIL
  6
CONTINUOUS
 62
     5
 10
-310.97500000000082
 20
-24.299748135499389
 30
0.0
 40
6.0
 50
180.0
 51
0.0
  0
ARC
  8
DETAIL
  6
CONTINUOUS
 62
     5
 10
-301.97499999999991
 20
-4.7997481355000673
 30
0.0
 40
3.0
 50
90.0
 51
180.0
  0
ARC
  8
DETAIL
  6
CONTINUOUS
 62
     5
 10
-319.9749999999994
 20
-4.7997481355000673
 30
0.0
 40
3.0
 50
0.0
 51
90.0
  0
ARC
  8
DETAIL
  6
CONTINUOUS
 62
     5
 10
183.7249999999994
 20
-341.59974813549962
 30
0.0
 40
10.0
 50
180.0
 51
270.0
  0
ARC
  8
DETAIL
  6
CONTINUOUS
 62
     5
 10
183.7249999999994
 20
-266.89974813549929
 30
0.0
 40
10.0
 50
90.0
 51
180.0
  0
ARC
  8
DETAIL
  6
CONTINUOUS
 62
     5
 10
214.32499999999891
 20
-266.89974813549929
 30
0.0
 40
10.0
 50
0.0
 51
90.0
  0
ARC
  8
DETAIL
  6
CONTINUOUS
 62
     5
 10
214.32499999999891
 20
-341.59974813549962
 30
0.0
 40
10.0
 50
270.0
 51
0.0
  0
ARC
  8
DETAIL
  6
CONTINUOUS
 62
     5
 10
199.02499999999921
 20
-338.7997481354987
 30
0.0
 40
6.0
 50
180.0
 51
0.0
  0
ARC
  8
DETAIL
  6
CONTINUOUS
 62
     5
 10
199.02499999999921
 20
-334.79974813549887
 30
0.0
 40
6.0
 50
0.0
 51
180.0
  0
ARC
  8
DETAIL
  6
CONTINUOUS
 62
     5
 10
214.32500000000121
 20
-9.9997481354998854
 30
0.0
 40
10.0
 50
0.0
 51
90.0
  0
ARC
  8
DETAIL
  6
CONTINUOUS
 62
     5
 10
214.32500000000121
 20
-84.699748135499007
 30
0.0
 40
10.0
 50
270.0
 51
0.0
  0
ARC
  8
DETAIL
  6
CONTINUOUS
 62
     5
 10
183.7249999999994
 20
-84.699748135499007
 30
0.0
 40
10.0
 50
180.0
 51
270.0
  0
ARC
  8
DETAIL
  6
CONTINUOUS
 62
     5
 10
183.7249999999994
 20
-9.9997481354998854
 30
0.0
 40
10.0
 50
90.0
 51
180.0
  0
ARC
  8
DETAIL
  6
CONTINUOUS
 62
     5
 10
199.02499999999921
 20
-24.299748135499389
 30
0.0
 40
6.0
 50
180.0
 51
0.0
  0
ARC
  8
DETAIL
  6
CONTINUOUS
 62
     5
 10
208.02500000000009
 20
-4.7997481355000673
 30
0.0
 40
3.0
 50
90.0
 51
180.0
  0
ARC
  8
DETAIL
  6
CONTINUOUS
 62
     5
 10
190.02500000000049
 20
-4.7997481355000673
 30
0.0
 40
3.0
 50
0.0
 51
90.0
  0
ARC
  8
DETAIL
  6
CONTINUOUS
 62
     5
 10
-326.27500000000049
 20
-341.59974813549962
 30
0.0
 40
10.0
 50
180.0
 51
270.0
  0
ARC
  8
DETAIL
  6
CONTINUOUS
 62
     5
 10
-326.27500000000049
 20
-266.89974813549929
 30
0.0
 40
10.0
 50
90.0
 51
180.0
  0
ARC
  8
DETAIL
  6
CONTINUOUS
 62
     5
 10
-295.67500000000109
 20
-266.89974813549929
 30
0.0
 40
10.0
 50
0.0
 51
90.0
  0
ARC
  8
DETAIL
  6
CONTINUOUS
 62
     5
 10
-295.67500000000109
 20
-341.59974813549962
 30
0.0
 40
10.0
 50
270.0
 51
0.0
  0
ARC
  8
DETAIL
  6
CONTINUOUS
 62
     5
 10
-310.97500000000082
 20
-338.7997481354987
 30
0.0
 40
6.0
 50
180.0
 51
0.0
  0
ARC
  8
DETAIL
  6
CONTINUOUS
 62
     5
 10
-310.97500000000082
 20
-334.79974813549887
 30
0.0
 40
6.0
 50
0.0
 51
180.0
  0
LINE
  8
DETAIL
  6
CONTINUOUS
 62
     5
 10
-411.57300571840091
 20
-137.1154669932989
 30
0.0
 11
-411.57300571840091
 21
-56.784029242098541
 31
0.0
  0
LINE
  8
DETAIL
  6
CONTINUOUS
 62
     5
 10
-411.57300256380029
 20
-56.780727495199471
 30
0.0
 11
-411.56674113939971
 21
-56.722942360498557
 31
0.0
  0
LINE
  8
DETAIL
  6
CONTINUOUS
 62
     5
 10
-411.56674100810039
 20
-137.1765544339994
 30
0.0
 11
-411.57300256380029
 21
-137.11876876509879
 31
0.0
  0
LINE
  8
DETAIL
  6
CONTINUOUS
 62
     5
 10
-401.97499999999991
 20
-49.476276849498852
 30
0.0
 11
-401.97499999999991
 21
-51.949748135499249
 31
0.0
  0
LINE
  8
DETAIL
  6
CONTINUOUS
 62
     5
 10
-401.97499999999991
 20
-141.94974813549919
 30
0.0
 11
-401.97499999999991
 21
-144.42321942139961
 31
0.0
  0
LINE
  8
DETAIL
  6
CONTINUOUS
 62
     5
 10
-399.97499999999951
 20
-300.39966680109927
 30
0.0
 11
-399.97499999999923
 21
-48.449748135498787
 31
0.0
  0
LINE
  8
DETAIL
  6
CONTINUOUS
 62
     5
 10
-399.97499999999951
 20
-48.449748135499021
 30
0.0
 11
-399.97499999999951
 21
-45.499748135499431
 31
0.0
  0
LINE
  8
DETAIL
  6
CONTINUOUS
 62
     5
 10
-371.46139840810059
 20
-330.41720120649961
 30
0.0
 11
-371.54881939660072
 21
-320.39974813549952
 31
0.0
  0
LINE
  8
DETAIL
  6
CONTINUOUS
 62
     5
 10
400.02500000000049
 20
-242.6997481354781
 30
0.0
 11
459.50160682430118
 21
-226.76303936829959
 31
0.0
  0
LINE
  8
DETAIL
  6
CONTINUOUS
 62
     5
 10
142.31147456190001
 20
-332.3997481354989
 30
0.0
 11
-369.46147456199918
 21
-332.3997481354989
 31
0.0
  0
LINE
  8
DETAIL
  6
CONTINUOUS
 62
     5
 10
380.02491866559922
 20
-320.39974813549952
 30
0.0
 11
-371.54881939660049
 21
-320.39974813549952
 31
0.0
  0
LINE
  8
DETAIL
  6
CONTINUOUS
 62
     5
 10
-371.54881939660072
 20
-320.39974813549952
 30
0.0
 11
-379.97491561569859
 21
-320.39974813549952
 31
0.0
  0
LINE
  8
DETAIL
  6
CONTINUOUS
 62
     5
 10
194.72496171560121
 20
-320.39974813549952
 30
0.0
 11
380.02500000000049
 21
-320.39974813549952
 31
0.0
  0
LINE
  8
DETAIL
  6
CONTINUOUS
 62
     5
 10
-406.54182432849888
 20
-141.8227943446991
 30
0.0
 11
-406.50215586500047
 21
-141.8258379777987
 31
0.0
  0
LINE
  8
DETAIL
  6
CONTINUOUS
 62
     5
 10
-399.97499999999951
 20
-145.44974813549939
 30
0.0
 11
-401.00117694830033
 21
-145.4228767463994
 31
0.0
  0
LINE
  8
DETAIL
  6
CONTINUOUS
 62
     5
 10
-401.97499999999991
 20
-141.94974813549919
 30
0.0
 11
-406.27142080009878
 21
-141.83724239739919
 31
0.0
  0
LINE
  8
DETAIL
  6
CONTINUOUS
 62
     5
 10
-406.32186904269918
 20
-141.83566531509859
 30
0.0
 11
-406.27141644979918
 21
-141.83724251119969
 31
0.0
  0
LINE
  8
DETAIL
  6
CONTINUOUS
 62
     5
 10
-406.50215586500047
 20
-141.8258379777987
 30
0.0
 11
-406.32186904269918
 21
-141.83566531509859
 31
0.0
  0
LINE
  8
DETAIL
  6
CONTINUOUS
 62
     5
 10
144.31139840809919
 20
-330.41720120649961
 30
0.0
 11
144.39881939659921
 21
-320.39974813549952
 31
0.0
  0
LINE
  8
DETAIL
  6
CONTINUOUS
 62
     5
 10
-406.50215586500047
 20
-52.073658293098561
 30
0.0
 11
-406.54182432849888
 21
-52.076701926199348
 31
0.0
  0
LINE
  8
DETAIL
  6
CONTINUOUS
 62
     5
 10
-406.27142080009878
 20
-52.062253873599282
 30
0.0
 11
-401.97499999999991
 21
-51.949748135499249
 31
0.0
  0
LINE
  8
DETAIL
  6
CONTINUOUS
 62
     5
 10
-401.00117694830033
 20
-48.476619524499029
 30
0.0
 11
-399.97499999999951
 21
-48.449748135499021
 31
0.0
  0
LINE
  8
DETAIL
  6
CONTINUOUS
 62
     5
 10
-384.9749999999994
 20
-30.499748135499431
 30
0.0
 11
340.02500000000049
 21
-30.499748135499431
 31
0.0
  0
LINE
  8
SERVICESPACE
  6
AM_ISO02W050
 62
     2
 10
-474.9749999999994
 20
49.500251864500797
 30
0.0
 11
650.025000000001
 21
49.500251864500342
 31
0.0
  0
LINE
  8
DETAIL
  6
CONTINUOUS
 62
     5
 10
340.02500000000049
 20
-30.499748135499431
 30
0.0
 11
385.02491970999932
 21
-30.499748135499431
 31
0.0
  0
LINE
  8
DETAIL
  6
CONTINUOUS
 62
     5
 10
448.92499999999927
 20
-109.8221374921556
 30
0.0
 11
457.55452510969923
 21
-111.34375559969931
 31
0.0
  0
LINE
  8
DETAIL
  6
CONTINUOUS
 62
     5
 10
448.51182408880049
 20
-99.801655274298824
 30
0.0
 11
400.02500000000049
 21
-91.252119978598543
 31
0.0
  0
LINE
  8
DETAIL
  6
CONTINUOUS
 62
     5
 10
340.02500000000049
 20
-30.499748135499431
 30
0.0
 11
340.02500000000049
 21
-22.499748135498749
 31
0.0
  0
LINE
  8
DETAIL
  6
CONTINUOUS
 62
     5
 10
370.02500000000049
 20
-30.499748135499431
 30
0.0
 11
370.02500000000049
 21
-22.499748135498749
 31
0.0
  0
LINE
  8
DETAIL
  6
CONTINUOUS
 62
     5
 10
400.02500000000049
 20
-45.49982540729934
 30
0.0
 11
400.02500000000049
 21
-91.252119978598543
 31
0.0
  0
LINE
  8
DETAIL
  6
CONTINUOUS
 62
     5
 10
400.02500000000009
 20
-91.252119978598785
 30
0.0
 11
400.02500000000049
 21
-300.39966375119872
 31
0.0
  0
LINE
  8
DETAIL
  6
CONTINUOUS
 62
     5
 10
448.92499999999927
 20
-100.2940591507988
 30
0.0
 11
448.92499999999927
 21
-109.8221374920988
 31
0.0
  0
LINE
  8
DETAIL
  6
CONTINUOUS
 62
     5
 10
471.2249999999994
 20
-159.39974813549929
 30
0.0
 11
471.2249999999994
 21
-178.39974813549901
 31
0.0
  0
ARC
  8
DETAIL
  6
CONTINUOUS
 62
     5
 10
355.02500000000049
 20
-22.499748135498749
 30
0.0
 40
15.0
 50
0.0
 51
180.0
  0
ARC
  8
DETAIL
  6
CONTINUOUS
 62
     5
 10
-400.97500000000082
 20
-49.476276849498852
 30
0.0
 40
1.0
 50
91.500000000041908
 51
180.0
  0
ARC
  8
DETAIL
  6
CONTINUOUS
 62
     5
 10
-400.97500000000082
 20
-144.42321942139961
 30
0.0
 40
1.0
 50
180.0
 51
268.49999999995811
  0
ARC
  8
DETAIL
  6
CONTINUOUS
 62
     5
 10
-369.46147456199918
 20
-330.39974813549952
 30
0.0
 40
2.0
 50
180.49999999996541
 51
270.0
  0
ARC
  8
DETAIL
  6
CONTINUOUS
 62
     5
 10
142.31147456190001
 20
-330.39974813549952
 30
0.0
 40
2.0
 50
270.0
 51
359.50000000003467
  0
ARC
  8
DETAIL
  6
CONTINUOUS
 62
     5
 10
211.02499999999961
 20
-171.94974813549919
 30
0.0
 40
260.0
 50
2.7671911676877441
 51
11.71429850880131
  0
ARC
  8
DETAIL
  6
CONTINUOUS
 62
     5
 10
211.02499999999961
 20
-171.94974813549919
 30
0.0
 40
260.0
 50
349.59435020745292
 51
358.57816441322581
  0
ARC
  8
DETAIL
  6
CONTINUOUS
 62
     5
 10
456.9134163731996
 20
-217.10378110549959
 30
0.0
 40
10.0
 50
284.99999999999437
 51
349.59435020745292
  0
ARC
  8
DETAIL
  6
CONTINUOUS
 62
     5
 10
455.81804333309952
 20
-121.1918331297997
 30
0.0
 40
10.0
 50
11.71429850880131
 51
79.999999999968196
  0
ARC
  8
DETAIL
  6
CONTINUOUS
 62
     5
 10
448.42499660410112
 20
-100.2940585519989
 30
0.0
 40
0.5
 50
359.9999313840791
 51
79.999604854222653
  0
ARC
  8
DETAIL
  6
CONTINUOUS
 62
     5
 10
380.02500000000049
 20
-300.39974813549952
 30
0.0
 40
20.0
 50
270.0
 51
0.0
  0
ARC
  8
DETAIL
  6
CONTINUOUS
 62
     5
 10
380.02500000000049
 20
-300.39974813549952
 30
0.0
 40
20.0
 50
269.99976699415578
 51
0.0002417431627196
  0
ARC
  8
DETAIL
  6
CONTINUOUS
 62
     5
 10
-379.97499999999951
 20
-300.39974813549952
 30
0.0
 40
20.0
 50
179.99976699409069
 51
270.00024174316269
  0
ARC
  8
DETAIL
  6
CONTINUOUS
 62
     5
 10
385.0250000000006
 20
-45.499748135499431
 30
0.0
 40
15.0
 50
359.99970484341821
 51
90.000306685248759
  0
ARC
  8
DETAIL
  6
CONTINUOUS
 62
     5
 10
-384.9749999999994
 20
-45.499748135499431
 30
0.0
 40
15.0
 50
89.999704843353072
 51
180.0003066851836
  0
POLYLINE
  8
DETAIL
  6
CONTINUOUS
 62
     5
 66
     1
 10
0.0
 20
0.0
 30
0.0
  0
VERTEX
  8
DETAIL
  6
CONTINUOUS
 62
     5
 10
-406.5196640257999
 20
-52.075919081099528
 30
0.0
  0
VERTEX
  8
DETAIL
  6
CONTINUOUS
 62
     5
 10
-406.4921256501338
 20
-52.073696820001111
 30
0.0
  0
VERTEX
  8
DETAIL
  6
CONTINUOUS
 62
     5
 10
-406.46457340916362
 20
-52.071649853547079
 30
0.0
  0
VERTEX
  8
DETAIL
  6
CONTINUOUS
 62
     5
 10
-406.43700862784601
 20
-52.069778495364318
 30
0.0
  0
VERTEX
  8
DETAIL
  6
CONTINUOUS
 62
     5
 10
-406.40943257812529
 20
-52.068083051084848
 30
0.0
  0
VERTEX
  8
DETAIL
  6
CONTINUOUS
 62
     5
 10
-406.38184631717206
 20
-52.066563793950252
 30
0.0
  0
VERTEX
  8
DETAIL
  6
CONTINUOUS
 62
     5
 10
-406.35425084777324
 20
-52.065220989000409
 30
0.0
  0
VERTEX
  8
DETAIL
  6
CONTINUOUS
 62
     5
 10
-406.32664723089795
 20
-52.064054898921199
 30
0.0
  0
VERTEX
  8
DETAIL
  6
CONTINUOUS
 62
     5
 10
-406.29903676299978
 20
-52.063065776871291
 30
0.0
  0
VERTEX
  8
DETAIL
  6
CONTINUOUS
 62
     5
 10
-406.27142080009878
 20
-52.062253873599282
 30
0.0
  0
SEQEND
  8
DETAIL
  6
CONTINUOUS
 62
     5
  0
POLYLINE
  8
DETAIL
  6
CONTINUOUS
 62
     5
 66
     1
 10
0.0
 20
0.0
 30
0.0
  0
VERTEX
  8
DETAIL
  6
CONTINUOUS
 62
     5
 10
-411.57224773070078
 20
-56.803063479798993
 30
0.0
  0
VERTEX
  8
DETAIL
  6
CONTINUOUS
 62
     5
 10
-411.57239040205832
 20
-56.79987493628505
 30
0.0
  0
VERTEX
  8
DETAIL
  6
CONTINUOUS
 62
     5
 10
-411.57251194341728
 20
-56.796685266883905
 30
0.0
  0
VERTEX
  8
DETAIL
  6
CONTINUOUS
 62
     5
 10
-411.57261127860528
 20
-56.793494714324943
 30
0.0
  0
VERTEX
  8
DETAIL
  6
CONTINUOUS
 62
     5
 10
-411.57268733144986
 20
-56.790303521337613
 30
0.0
  0
VERTEX
  8
DETAIL
  6
CONTINUOUS
 62
     5
 10
-411.5727390257789
 20
-56.787111930651349
 30
0.0
  0
VERTEX
  8
DETAIL
  6
CONTINUOUS
 62
     5
 10
-411.57276528541968
 20
-56.783920184995551
 30
0.0
  0
VERTEX
  8
DETAIL
  6
CONTINUOUS
 62
     5
 10
-411.57276503420002
 20
-56.780728527099647
 30
0.0
  0
SEQEND
  8
DETAIL
  6
CONTINUOUS
 62
     5
  0
POLYLINE
  8
DETAIL
  6
CONTINUOUS
 62
     5
 66
     1
 10
0.0
 20
0.0
 30
0.0
  0
VERTEX
  8
DETAIL
  6
CONTINUOUS
 62
     5
 10
-406.5196640257999
 20
-52.075919081099528
 30
0.0
  0
VERTEX
  8
DETAIL
  6
CONTINUOUS
 62
     5
 10
-406.52280753264995
 20
-52.076183968578434
 30
0.0
  0
VERTEX
  8
DETAIL
  6
CONTINUOUS
 62
     5
 10
-406.52595084835218
 20
-52.07645113929172
 30
0.0
  0
VERTEX
  8
DETAIL
  6
CONTINUOUS
 62
     5
 10
-406.52909397046801
 20
-52.076720592497246
 30
0.0
  0
VERTEX
  8
DETAIL
  6
CONTINUOUS
 62
     5
 10
-406.53223689655925
 20
-52.076992327452892
 30
0.0
  0
VERTEX
  8
DETAIL
  6
CONTINUOUS
 62
     5
 10
-406.53537962418727
 20
-52.077266343416504
 30
0.0
  0
VERTEX
  8
DETAIL
  6
CONTINUOUS
 62
     5
 10
-406.53852215091376
 20
-52.077542639645969
 30
0.0
  0
VERTEX
  8
DETAIL
  6
CONTINUOUS
 62
     5
 10
-406.54166447430038
 20
-52.077821215399133
 30
0.0
  0
SEQEND
  8
DETAIL
  6
CONTINUOUS
 62
     5
  0
POLYLINE
  8
DETAIL
  6
CONTINUOUS
 62
     5
 66
     1
 10
0.0
 20
0.0
 30
0.0
  0
VERTEX
  8
DETAIL
  6
CONTINUOUS
 62
     5
 10
-406.54166447430038
 20
-52.077821215399133
 30
0.0
  0
VERTEX
  8
DETAIL
  6
CONTINUOUS
 62
     5
 10
-406.5462174383465
 20
-52.078228923997443
 30
0.0
  0
VERTEX
  8
DETAIL
  6
CONTINUOUS
 62
     5
 10
-406.55076997779588
 20
-52.07864141640465
 30
0.0
  0
VERTEX
  8
DETAIL
  6
CONTINUOUS
 62
     5
 10
-406.5553220852687
 20
-52.079058690367212
 30
0.0
  0
VERTEX
  8
DETAIL
  6
CONTINUOUS
 62
     5
 10
-406.5598737533852
 20
-52.079480743631564
 30
0.0
  0
VERTEX
  8
DETAIL
  6
CONTINUOUS
 62
     5
 10
-406.56442497476587
 20
-52.079907573944155
 30
0.0
  0
VERTEX
  8
DETAIL
  6
CONTINUOUS
 62
     5
 10
-406.56897574203072
 20
-52.080339179051407
 30
0.0
  0
VERTEX
  8
DETAIL
  6
CONTINUOUS
 62
     5
 10
-406.57352604780039
 20
-52.080775556699791
 30
0.0
  0
SEQEND
  8
DETAIL
  6
CONTINUOUS
 62
     5
  0
POLYLINE
  8
DETAIL
  6
CONTINUOUS
 62
     5
 66
     1
 10
0.0
 20
0.0
 30
0.0
  0
VERTEX
  8
DETAIL
  6
CONTINUOUS
 62
     5
 10
-406.57352604780039
 20
-52.080775556699791
 30
0.0
  0
VERTEX
  8
DETAIL
  6
CONTINUOUS
 62
     5
 10
-406.65380838967764
 20
-52.089266668733728
 30
0.0
  0
VERTEX
  8
DETAIL
  6
CONTINUOUS
 62
     5
 10
-406.73392853447262
 20
-52.099236167933903
 30
0.0
  0
VERTEX
  8
DETAIL
  6
CONTINUOUS
 62
     5
 10
-406.81385767572942
 20
-52.110673843373256
 30
0.0
  0
VERTEX
  8
DETAIL
  6
CONTINUOUS
 62
     5
 10
-406.89356712635475
 20
-52.12356927663641
 30
0.0
  0
VERTEX
  8
DETAIL
  6
CONTINUOUS
 62
     5
 10
-406.97302953840244
 20
-52.137909721469256
 30
0.0
  0
VERTEX
  8
DETAIL
  6
CONTINUOUS
 62
     5
 10
-407.05221840543089
 20
-52.153680968830514
 30
0.0
  0
VERTEX
  8
DETAIL
  6
CONTINUOUS
 62
     5
 10
-407.13110723404827
 20
-52.170868786994696
 30
0.0
  0
VERTEX
  8
DETAIL
  6
CONTINUOUS
 62
     5
 10
-407.20966998336536
 20
-52.18945887649793
 30
0.0
  0
SEQEND
  8
DETAIL
  6
CONTINUOUS
 62
     5
  0
POLYLINE
  8
DETAIL
  6
CONTINUOUS
 62
     5
 66
     1
 10
0.0
 20
0.0
 30
0.0
  0
VERTEX
  8
DETAIL
  6
CONTINUOUS
 62
     5
 10
-407.28839984599972
 20
-141.68992396479871
 30
0.0
  0
VERTEX
  8
DETAIL
  6
CONTINUOUS
 62
     5
 10
-407.21012538416682
 20
-141.70992533076864
 30
0.0
  0
VERTEX
  8
DETAIL
  6
CONTINUOUS
 62
     5
 10
-407.1315033796979
 20
-141.72853744133116
 30
0.0
  0
VERTEX
  8
DETAIL
  6
CONTINUOUS
 62
     5
 10
-407.05255469101871
 20
-141.74574516789158
 30
0.0
  0
VERTEX
  8
DETAIL
  6
CONTINUOUS
 62
     5
 10
-406.97330540158504
 20
-141.76153417775532
 30
0.0
  0
VERTEX
  8
DETAIL
  6
CONTINUOUS
 62
     5
 10
-406.89378205577685
 20
-141.77589020843777
 30
0.0
  0
VERTEX
  8
DETAIL
  6
CONTINUOUS
 62
     5
 10
-406.81401121088265
 20
-141.78879901971575
 30
0.0
  0
VERTEX
  8
DETAIL
  6
CONTINUOUS
 62
     5
 10
-406.73402027022348
 20
-141.80024783038075
 30
0.0
  0
VERTEX
  8
DETAIL
  6
CONTINUOUS
 62
     5
 10
-406.65383799133429
 20
-141.81022619461731
 30
0.0
  0
VERTEX
  8
DETAIL
  6
CONTINUOUS
 62
     5
 10
-406.57349325339959
 20
-141.81872387639919
 30
0.0
  0
SEQEND
  8
DETAIL
  6
CONTINUOUS
 62
     5
  0
POLYLINE
  8
DETAIL
  6
CONTINUOUS
 62
     5
 66
     1
 10
0.0
 20
0.0
 30
0.0
  0
VERTEX
  8
DETAIL
  6
CONTINUOUS
 62
     5
 10
-406.57349325339959
 20
-141.81872387639919
 30
0.0
  0
VERTEX
  8
DETAIL
  6
CONTINUOUS
 62
     5
 10
-406.56895962159905
 20
-141.81915862920962
 30
0.0
  0
VERTEX
  8
DETAIL
  6
CONTINUOUS
 62
     5
 10
-406.56442553171979
 20
-141.81958864438917
 30
0.0
  0
VERTEX
  8
DETAIL
  6
CONTINUOUS
 62
     5
 10
-406.55989099106051
 20
-141.82001391970863
 30
0.0
  0
VERTEX
  8
DETAIL
  6
CONTINUOUS
 62
     5
 10
-406.55535600692019
 20
-141.82043445293866
 30
0.0
  0
VERTEX
  8
DETAIL
  6
CONTINUOUS
 62
     5
 10
-406.55082058659741
 20
-141.82085024185008
 30
0.0
  0
VERTEX
  8
DETAIL
  6
CONTINUOUS
 62
     5
 10
-406.54628473739109
 20
-141.82126128421359
 30
0.0
  0
VERTEX
  8
DETAIL
  6
CONTINUOUS
 62
     5
 10
-406.54174846659993
 20
-141.8216675777999
 30
0.0
  0
SEQEND
  8
DETAIL
  6
CONTINUOUS
 62
     5
  0
POLYLINE
  8
DETAIL
  6
CONTINUOUS
 62
     5
 66
     1
 10
0.0
 20
0.0
 30
0.0
  0
VERTEX
  8
DETAIL
  6
CONTINUOUS
 62
     5
 10
-406.54174846659993
 20
-141.8216675777999
 30
0.0
  0
VERTEX
  8
DETAIL
  6
CONTINUOUS
 62
     5
 10
-406.53859414897619
 20
-141.82194727411667
 30
0.0
  0
VERTEX
  8
DETAIL
  6
CONTINUOUS
 62
     5
 10
-406.53543962641186
 20
-141.82222467348595
 30
0.0
  0
VERTEX
  8
DETAIL
  6
CONTINUOUS
 62
     5
 10
-406.53228490137298
 20
-141.82249977515565
 30
0.0
  0
VERTEX
  8
DETAIL
  6
CONTINUOUS
 62
     5
 10
-406.52912997632603
 20
-141.82277257837384
 30
0.0
  0
VERTEX
  8
DETAIL
  6
CONTINUOUS
 62
     5
 10
-406.52597485373741
 20
-141.82304308238847
 30
0.0
  0
VERTEX
  8
DETAIL
  6
CONTINUOUS
 62
     5
 10
-406.52281953607326
 20
-141.82331128644751
 30
0.0
  0
VERTEX
  8
DETAIL
  6
CONTINUOUS
 62
     5
 10
-406.5196640257999
 20
-141.8235771897989
 30
0.0
  0
SEQEND
  8
DETAIL
  6
CONTINUOUS
 62
     5
  0
POLYLINE
  8
DETAIL
  6
CONTINUOUS
 62
     5
 66
     1
 10
0.0
 20
0.0
 30
0.0
  0
VERTEX
  8
DETAIL
  6
CONTINUOUS
 62
     5
 10
-406.5196640257999
 20
-141.8235771897989
 30
0.0
  0
VERTEX
  8
DETAIL
  6
CONTINUOUS
 62
     5
 10
-406.51022915475835
 20
-141.82435840972417
 30
0.0
  0
VERTEX
  8
DETAIL
  6
CONTINUOUS
 62
     5
 10
-406.50079254741161
 20
-141.82511907088153
 30
0.0
  0
VERTEX
  8
DETAIL
  6
CONTINUOUS
 62
     5
 10
-406.49135427050805
 20
-141.82585915980948
 30
0.0
  0
VERTEX
  8
DETAIL
  6
CONTINUOUS
 62
     5
 10
-406.48191439079653
 20
-141.82657866304669
 30
0.0
  0
VERTEX
  8
DETAIL
  6
CONTINUOUS
 62
     5
 10
-406.47247297502571
 20
-141.82727756713174
 30
0.0
  0
VERTEX
  8
DETAIL
  6
CONTINUOUS
 62
     5
 10
-406.46303008994425
 20
-141.82795585860319
 30
0.0
  0
VERTEX
  8
DETAIL
  6
CONTINUOUS
 62
     5
 10
-406.45358580230089
 20
-141.82861352399959
 30
0.0
  0
SEQEND
  8
DETAIL
  6
CONTINUOUS
 62
     5
  0
POLYLINE
  8
DETAIL
  6
CONTINUOUS
 62
     5
 66
     1
 10
0.0
 20
0.0
 30
0.0
  0
VERTEX
  8
DETAIL
  6
CONTINUOUS
 62
     5
 10
-406.45358580230089
 20
-141.82861352399959
 30
0.0
  0
VERTEX
  8
DETAIL
  6
CONTINUOUS
 62
     5
 10
-406.44116306404493
 20
-141.82944703390561
 30
0.0
  0
VERTEX
  8
DETAIL
  6
CONTINUOUS
 62
     5
 10
-406.42873790052624
 20
-141.83024483204593
 30
0.0
  0
VERTEX
  8
DETAIL
  6
CONTINUOUS
 62
     5
 10
-406.41631038640253
 20
-141.83100689355553
 30
0.0
  0
VERTEX
  8
DETAIL
  6
CONTINUOUS
 62
     5
 10
-406.4038806662594
 20
-141.83173319123418
 30
0.0
  0
VERTEX
  8
DETAIL
  6
CONTINUOUS
 62
     5
 10
-406.391448885937
 20
-141.83242369783989
 30
0.0
  0
VERTEX
  8
DETAIL
  6
CONTINUOUS
 62
     5
 10
-406.37901519127581
 20
-141.83307838613052
 30
0.0
  0
VERTEX
  8
DETAIL
  6
CONTINUOUS
 62
     5
 10
-406.36657972811633
 20
-141.8336972288642
 30
0.0
  0
VERTEX
  8
DETAIL
  6
CONTINUOUS
 62
     5
 10
-406.35414264229888
 20
-141.83428019879869
 30
0.0
  0
SEQEND
  8
DETAIL
  6
CONTINUOUS
 62
     5
  0
POLYLINE
  8
DETAIL
  6
CONTINUOUS
 62
     5
 66
     1
 10
0.0
 20
0.0
 30
0.0
  0
VERTEX
  8
DETAIL
  6
CONTINUOUS
 62
     5
 10
-406.35414264229888
 20
-141.83428019879869
 30
0.0
  0
VERTEX
  8
DETAIL
  6
CONTINUOUS
 62
     5
 10
-406.35128587962811
 20
-141.8344090266767
 30
0.0
  0
VERTEX
  8
DETAIL
  6
CONTINUOUS
 62
     5
 10
-406.34842903062304
 20
-141.83453596103482
 30
0.0
  0
VERTEX
  8
DETAIL
  6
CONTINUOUS
 62
     5
 10
-406.34557209715848
 20
-141.83466100158086
 30
0.0
  0
VERTEX
  8
DETAIL
  6
CONTINUOUS
 62
     5
 10
-406.34271508110913
 20
-141.83478414802261
 30
0.0
  0
VERTEX
  8
DETAIL
  6
CONTINUOUS
 62
     5
 10
-406.33985798434986
 20
-141.83490540006775
 30
0.0
  0
VERTEX
  8
DETAIL
  6
CONTINUOUS
 62
     5
 10
-406.33700080875542
 20
-141.83502475742415
 30
0.0
  0
VERTEX
  8
DETAIL
  6
CONTINUOUS
 62
     5
 10
-406.33414355620062
 20
-141.83514221979951
 30
0.0
  0
SEQEND
  8
DETAIL
  6
CONTINUOUS
 62
     5
  0
POLYLINE
  8
DETAIL
  6
CONTINUOUS
 62
     5
 66
     1
 10
0.0
 20
0.0
 30
0.0
  0
VERTEX
  8
DETAIL
  6
CONTINUOUS
 62
     5
 10
-406.33414355620062
 20
-141.83514221979951
 30
0.0
  0
VERTEX
  8
DETAIL
  6
CONTINUOUS
 62
     5
 10
-406.32518518150857
 20
-141.83549819432827
 30
0.0
  0
VERTEX
  8
DETAIL
  6
CONTINUOUS
 62
     5
 10
-406.31622603708286
 20
-141.83583553435082
 30
0.0
  0
VERTEX
  8
DETAIL
  6
CONTINUOUS
 62
     5
 10
-406.30726618095622
 20
-141.83615423073942
 30
0.0
  0
VERTEX
  8
DETAIL
  6
CONTINUOUS
 62
     5
 10
-406.29830567116159
 20
-141.83645427436628
 30
0.0
  0
VERTEX
  8
DETAIL
  6
CONTINUOUS
 62
     5
 10
-406.28934456573188
 20
-141.83673565610368
 30
0.0
  0
VERTEX
  8
DETAIL
  6
CONTINUOUS
 62
     5
 10
-406.28038292270003
 20
-141.83699836682393
 30
0.0
  0
VERTEX
  8
DETAIL
  6
CONTINUOUS
 62
     5
 10
-406.27142080009878
 20
-141.83724239739919
 30
0.0
  0
SEQEND
  8
DETAIL
  6
CONTINUOUS
 62
     5
  0
POLYLINE
  8
DETAIL
  6
CONTINUOUS
 62
     5
 66
     1
 10
0.0
 20
0.0
 30
0.0
  0
VERTEX
  8
DETAIL
  6
CONTINUOUS
 62
     5
 10
-411.57276503779929
 20
-137.11876773319861
 30
0.0
  0
VERTEX
  8
DETAIL
  6
CONTINUOUS
 62
     5
 10
-411.57276528781256
 20
-137.11557604083248
 30
0.0
  0
VERTEX
  8
DETAIL
  6
CONTINUOUS
 62
     5
 10
-411.57273902640156
 20
-137.11238426071475
 30
0.0
  0
VERTEX
  8
DETAIL
  6
CONTINUOUS
 62
     5
 10
-411.57268732977531
 20
-137.10919263558094
 30
0.0
  0
VERTEX
  8
DETAIL
  6
CONTINUOUS
 62
     5
 10
-411.57261127414296
 20
-137.1060014081668
 30
0.0
  0
VERTEX
  8
DETAIL
  6
CONTINUOUS
 62
     5
 10
-411.57251193571375
 20
-137.10281082120801
 30
0.0
  0
VERTEX
  8
DETAIL
  6
CONTINUOUS
 62
     5
 10
-411.57239039069663
 20
-137.09962111744025
 30
0.0
  0
VERTEX
  8
DETAIL
  6
CONTINUOUS
 62
     5
 10
-411.57224771530082
 20
-137.09643253959911
 30
0.0
  0
SEQEND
  8
DETAIL
  6
CONTINUOUS
 62
     5
  0
CIRCLE
  8
DETAIL
  6
CONTINUOUS
 62
     5
 10
-72.674999999999272
 20
-236.89974813549929
 30
0.0
 40
10.0
  0
CIRCLE
  8
DETAIL
  6
CONTINUOUS
 62
     5
 10
-72.674999999999272
 20
-73.999748135499658
 30
0.0
 40
10.0
  0
INSERT
  8
SIZE
  2
SD4
 10
0.0
 20
0.0
 30
0.0
 41
1.0
 42
1.0
 43
1.0
1001
ACAD
1000
DSTYLE
1002
{
1070
    40
1040
10.0
1070
    41
1040
3.0
1070
   140
1040
3.0
1070
   144
1040
1.0
1070
   176
1070
   256
1070
   177
1070
   256
1070
   178
1070
   256
1002
}
  0
INSERT
  8
SIZE
  2
SD5
 10
0.0
 20
0.0
 30
0.0
 41
1.0
 42
1.0
 43
1.0
1001
ACAD
1000
DSTYLE
1002
{
1070
    40
1040
10.0
1070
    41
1040
3.0
1070
   140
1040
3.0
1070
   144
1040
1.0
1070
   176
1070
   256
1070
   177
1070
   256
1070
   178
1070
   256
1002
}
  0
INSERT
  8
SIZE
  2
SD6
 10
0.0
 20
0.0
 30
0.0
 41
1.0
 42
1.0
 43
1.0
1001
ACAD
1000
DSTYLE
1002
{
1070
    40
1040
10.0
1070
    41
1040
3.0
1070
   140
1040
3.0
1070
   144
1040
1.0
1070
   176
1070
   256
1070
   177
1070
   256
1070
   178
1070
   256
1002
}
  0
INSERT
  8
SIZE
  2
SD7
 10
0.0
 20
0.0
 30
0.0
 41
1.0
 42
1.0
 43
1.0
1001
ACAD
1000
DSTYLE
1002
{
1070
    40
1040
10.0
1070
    41
1040
3.0
1070
   140
1040
3.0
1070
   144
1040
1.0
1070
   176
1070
   256
1070
   177
1070
   256
1070
   178
1070
   256
1002
}
  0
INSERT
  8
SIZE
  2
SD8
 10
0.0
 20
0.0
 30
0.0
 41
1.0
 42
1.0
 43
1.0
1001
ACAD
1000
DSTYLE
1002
{
1070
    40
1040
10.0
1070
    41
1040
3.0
1070
   140
1040
3.0
1070
   144
1040
1.0
1070
   176
1070
   256
1070
   177
1070
   256
1070
   178
1070
   256
1002
}
  0
INSERT
  8
SIZE
  2
SD9
 10
0.0
 20
0.0
 30
0.0
 41
1.0
 42
1.0
 43
1.0
1001
ACAD
1000
DSTYLE
1002
{
1070
    40
1040
10.0
1070
    41
1040
3.0
1070
   140
1040
3.0
1070
   144
1040
1.0
1070
   176
1070
   256
1070
   177
1070
   256
1070
   178
1070
   256
1002
}
  0
INSERT
  8
SIZE
  2
SD10
 10
0.0
 20
0.0
 30
0.0
 41
1.0
 42
1.0
 43
1.0
1001
ACAD
1000
DSTYLE
1002
{
1070
    40
1040
10.0
1070
    41
1040
3.0
1070
   140
1040
3.0
1070
   144
1040
1.0
1070
   176
1070
   256
1070
   177
1070
   256
1070
   178
1070
   256
1002
}
  0
LINE
  8
BASIS
  6
CENTER
 62
     6
 10
417.92500000000013
 20
-188.39974813549901
 30
0.0
 11
388.92499999999927
 21
-188.39974813549901
 31
0.0
  0
LINE
  8
BASIS
  6
CENTER
 62
     6
 10
388.92499999999927
 20
-154.8997481355
 30
0.0
 11
417.92499999999973
 21
-154.8997481355
 31
0.0
  0
LINE
  8
DETAIL
  6
CONTINUOUS
 62
     5
 10
400.02500000000049
 20
-161.8997481355004
 30
0.0
 11
417.92500000000013
 21
-161.89974813549969
 31
0.0
  0
ARC
  8
DETAIL
  6
CONTINUOUS
 62
     5
 10
417.92500000000013
 20
-154.8997481355
 30
0.0
 40
7.0
 50
270.0
 51
0.0
  0
LINE
  8
DETAIL
  6
CONTINUOUS
 62
     5
 10
400.02500000000049
 20
-147.8997481355002
 30
0.0
 11
410.92499999999973
 21
-147.8997481355002
 31
0.0
  0
LINE
  8
DETAIL
  6
CONTINUOUS
 62
     5
 10
417.87499999999949
 20
-193.19974813549919
 30
0.0
 11
400.02500000000049
 21
-193.19974813549919
 31
0.0
  0
ARC
  8
DETAIL
  6
CONTINUOUS
 62
     5
 10
417.87499999999949
 20
-188.2997481354991
 30
0.0
 40
4.9000000000000004
 50
270.0
 51
0.0
  0
LINE
  8
DETAIL
  6
CONTINUOUS
 62
     5
 10
413.07500000000113
 20
-183.5997481354988
 30
0.0
 11
400.02500000000049
 21
-183.5997481354988
 31
0.0
  0
LINE
  8
DETAIL
  6
CONTINUOUS
 62
     5
 10
413.07500000000113
 20
-169.22388957519999
 30
0.0
 11
413.07500000000113
 21
-183.5997481354988
 31
0.0
  0
LINE
  8
DETAIL
  6
CONTINUOUS
 62
     5
 10
422.77499999999912
 20
-169.22388957519999
 30
0.0
 11
422.77499999999958
 21
-188.2997481354991
 31
0.0
  0
LINE
  8
DETAIL
  6
CONTINUOUS
 62
     5
 10
424.92500000000013
 20
-154.8997481355
 30
0.0
 11
424.92500000000058
 21
-130.35664555488
 31
0.0
  0
POLYLINE
  8
DETAIL
  6
CONTINUOUS
 62
     5
 66
     1
 10
0.0
 20
0.0
 30
0.0
  0
VERTEX
  8
DETAIL
  6
CONTINUOUS
 62
     5
 10
417.92500000000013
 20
-165.50857402609989
 30
0.0
  0
VERTEX
  8
DETAIL
  6
CONTINUOUS
 62
     5
 10
418.44347684310691
 20
-165.52986492023965
 30
0.0
  0
VERTEX
  8
DETAIL
  6
CONTINUOUS
 62
     5
 10
418.9589121411791
 20
-165.59398202313281
 30
0.0
  0
VERTEX
  8
DETAIL
  6
CONTINUOUS
 62
     5
 10
419.46707874329189
 20
-165.70133696651394
 30
0.0
  0
VERTEX
  8
DETAIL
  6
CONTINUOUS
 62
     5
 10
419.96369744542949
 20
-165.85273020417699
 30
0.0
  0
VERTEX
  8
DETAIL
  6
CONTINUOUS
 62
     5
 10
420.44439516844011
 20
-166.04916695554104
 30
0.0
  0
VERTEX
  8
DETAIL
  6
CONTINUOUS
 62
     5
 10
420.90359878881793
 20
-166.29175695982318
 30
0.0
  0
VERTEX
  8
DETAIL
  6
CONTINUOUS
 62
     5
 10
421.33464885492981
 20
-166.58167582368793
 30
0.0
  0
VERTEX
  8
DETAIL
  6
CONTINUOUS
 62
     5
 10
421.72937408520073
 20
-166.91945728255087
 30
0.0
  0
VERTEX
  8
DETAIL
  6
CONTINUOUS
 62
     5
 10
422.0778977847263
 20
-167.30483487655957
 30
0.0
  0
VERTEX
  8
DETAIL
  6
CONTINUOUS
 62
     5
 10
422.36883936131545
 20
-167.73547422019811
 30
0.0
  0
VERTEX
  8
DETAIL
  6
CONTINUOUS
 62
     5
 10
422.58941638130824
 20
-168.20650599571826
 30
0.0
  0
VERTEX
  8
DETAIL
  6
CONTINUOUS
 62
     5
 10
422.72792029653806
 20
-168.70752221350568
 30
0.0
  0
VERTEX
  8
DETAIL
  6
CONTINUOUS
 62
     5
 10
422.7747791523006
 20
-169.22388957519999
 30
0.0
  0
SEQEND
  8
DETAIL
  6
CONTINUOUS
 62
     5
  0
POLYLINE
  8
DETAIL
  6
CONTINUOUS
 62
     5
 66
     1
 10
0.0
 20
0.0
 30
0.0
  0
VERTEX
  8
DETAIL
  6
CONTINUOUS
 62
     5
 10
413.07522084759961
 20
-169.22388957519999
 30
0.0
  0
VERTEX
  8
DETAIL
  6
CONTINUOUS
 62
     5
 10
413.12207970336351
 20
-168.70752221349832
 30
0.0
  0
VERTEX
  8
DETAIL
  6
CONTINUOUS
 62
     5
 10
413.26058361859725
 20
-168.20650599570433
 30
0.0
  0
VERTEX
  8
DETAIL
  6
CONTINUOUS
 62
     5
 10
413.4811606385959
 20
-167.73547422017873
 30
0.0
  0
VERTEX
  8
DETAIL
  6
CONTINUOUS
 62
     5
 10
413.77210221519232
 20
-167.30483487653603
 30
0.0
  0
VERTEX
  8
DETAIL
  6
CONTINUOUS
 62
     5
 10
414.12062591472619
 20
-166.91945728252531
 30
0.0
  0
VERTEX
  8
DETAIL
  6
CONTINUOUS
 62
     5
 10
414.51535114500598
 20
-166.58167582366164
 30
0.0
  0
VERTEX
  8
DETAIL
  6
CONTINUOUS
 62
     5
 10
414.94640121112656
 20
-166.29175695979569
 30
0.0
  0
VERTEX
  8
DETAIL
  6
CONTINUOUS
 62
     5
 10
415.4056048315133
 20
-166.04916695551412
 30
0.0
  0
VERTEX
  8
DETAIL
  6
CONTINUOUS
 62
     5
 10
415.8863025545345
 20
-165.85273020415841
 30
0.0
  0
VERTEX
  8
DETAIL
  6
CONTINUOUS
 62
     5
 10
416.38292125668386
 20
-165.70133696650933
 30
0.0
  0
VERTEX
  8
DETAIL
  6
CONTINUOUS
 62
     5
 10
416.891087858807
 20
-165.59398202313693
 30
0.0
  0
VERTEX
  8
DETAIL
  6
CONTINUOUS
 62
     5
 10
417.40652315688652
 20
-165.5298649202424
 30
0.0
  0
SEQEND
  8
DETAIL
  6
CONTINUOUS
 62
     5
  0
POLYLINE
  8
DETAIL
  6
CONTINUOUS
 62
     5
 66
     1
 10
0.0
 20
0.0
 30
0.0
  0
VERTEX
  8
DETAIL
  6
CONTINUOUS
 62
     5
 10
417.92500000000013
 20
-124.9943175460355
 30
0.0
  0
VERTEX
  8
DETAIL
  6
CONTINUOUS
 62
     5
 10
418.62036788945443
 20
-125.02086031880171
 30
0.0
  0
VERTEX
  8
DETAIL
  6
CONTINUOUS
 62
     5
 10
419.31168705302639
 20
-125.10058752277743
 30
0.0
  0
VERTEX
  8
DETAIL
  6
CONTINUOUS
 62
     5
 10
419.99464808017331
 20
-125.23407391764675
 30
0.0
  0
VERTEX
  8
DETAIL
  6
CONTINUOUS
 62
     5
 10
420.66473063513388
 20
-125.42209325766564
 30
0.0
  0
VERTEX
  8
DETAIL
  6
CONTINUOUS
 62
     5
 10
421.31659938887992
 20
-125.66578319943885
 30
0.0
  0
VERTEX
  8
DETAIL
  6
CONTINUOUS
 62
     5
 10
421.94439170990114
 20
-125.96641837600707
 30
0.0
  0
VERTEX
  8
DETAIL
  6
CONTINUOUS
 62
     5
 10
422.54076208640038
 20
-126.32527469847614
 30
0.0
  0
VERTEX
  8
DETAIL
  6
CONTINUOUS
 62
     5
 10
423.09737263057701
 20
-126.74347387372823
 30
0.0
  0
VERTEX
  8
DETAIL
  6
CONTINUOUS
 62
     5
 10
423.60369508515731
 20
-127.22125278603299
 30
0.0
  0
VERTEX
  8
DETAIL
  6
CONTINUOUS
 62
     5
 10
424.04783366937932
 20
-127.75769496525373
 30
0.0
  0
VERTEX
  8
DETAIL
  6
CONTINUOUS
 62
     5
 10
424.41575107624823
 20
-128.34881349069238
 30
0.0
  0
VERTEX
  8
DETAIL
  6
CONTINUOUS
 62
     5
 10
424.6930671521348
 20
-128.98768983498738
 30
0.0
  0
VERTEX
  8
DETAIL
  6
CONTINUOUS
 62
     5
 10
424.86596636148073
 20
-129.66298594313048
 30
0.0
  0
VERTEX
  8
DETAIL
  6
CONTINUOUS
 62
     5
 10
424.92500000000058
 20
-130.35664555488
 30
0.0
  0
SEQEND
  8
DETAIL
  6
CONTINUOUS
 62
     5
  0
LINE
  8
DETAIL
  6
CONTINUOUS
 62
     5
 10
410.92499999999973
 20
-147.8997481355002
 30
0.0
 11
410.92499999999973
 21
-130.35664555488
 31
0.0
  0
POLYLINE
  8
DETAIL
  6
CONTINUOUS
 62
     5
 66
     1
 10
0.0
 20
0.0
 30
0.0
  0
VERTEX
  8
DETAIL
  6
CONTINUOUS
 62
     5
 10
417.92500000000013
 20
-124.9943175460355
 30
0.0
  0
VERTEX
  8
DETAIL
  6
CONTINUOUS
 62
     5
 10
417.22963211054571
 20
-125.02086031880171
 30
0.0
  0
VERTEX
  8
DETAIL
  6
CONTINUOUS
 62
     5
 10
416.53831294697386
 20
-125.10058752277743
 30
0.0
  0
VERTEX
  8
DETAIL
  6
CONTINUOUS
 62
     5
 10
415.855351919827
 20
-125.23407391764675
 30
0.0
  0
VERTEX
  8
DETAIL
  6
CONTINUOUS
 62
     5
 10
415.18526936486637
 20
-125.42209325766564
 30
0.0
  0
VERTEX
  8
DETAIL
  6
CONTINUOUS
 62
     5
 10
414.53340061112038
 20
-125.66578319943885
 30
0.0
  0
VERTEX
  8
DETAIL
  6
CONTINUOUS
 62
     5
 10
413.90560829009911
 20
-125.96641837600707
 30
0.0
  0
VERTEX
  8
DETAIL
  6
CONTINUOUS
 62
     5
 10
413.30923791359987
 20
-126.32527469847614
 30
0.0
  0
VERTEX
  8
DETAIL
  6
CONTINUOUS
 62
     5
 10
412.75262736942312
 20
-126.74347387372823
 30
0.0
  0
VERTEX
  8
DETAIL
  6
CONTINUOUS
 62
     5
 10
412.24630491484299
 20
-127.22125278603299
 30
0.0
  0
VERTEX
  8
DETAIL
  6
CONTINUOUS
 62
     5
 10
411.80216633062082
 20
-127.75769496525373
 30
0.0
  0
VERTEX
  8
DETAIL
  6
CONTINUOUS
 62
     5
 10
411.43424892375191
 20
-128.34881349069238
 30
0.0
  0
VERTEX
  8
DETAIL
  6
CONTINUOUS
 62
     5
 10
411.15693284786562
 20
-128.98768983498738
 30
0.0
  0
VERTEX
  8
DETAIL
  6
CONTINUOUS
 62
     5
 10
410.98403363851963
 20
-129.66298594313048
 30
0.0
  0
VERTEX
  8
DETAIL
  6
CONTINUOUS
 62
     5
 10
410.92499999999973
 20
-130.35664555488
 30
0.0
  0
SEQEND
  8
DETAIL
  6
CONTINUOUS
 62
     5
  0
POLYLINE
  8
DETAIL
  6
CONTINUOUS
 62
     5
 66
     1
 10
0.0
 20
0.0
 30
0.0
  0
VERTEX
  8
DETAIL
  6
CONTINUOUS
 62
     5
 10
417.92500000000013
 20
-135.71897356372369
 30
0.0
  0
VERTEX
  8
DETAIL
  6
CONTINUOUS
 62
     5
 10
418.62036788945443
 20
-135.69243079095747
 30
0.0
  0
VERTEX
  8
DETAIL
  6
CONTINUOUS
 62
     5
 10
419.31168705302639
 20
-135.61270358698175
 30
0.0
  0
VERTEX
  8
DETAIL
  6
CONTINUOUS
 62
     5
 10
419.99464808017331
 20
-135.47921719211246
 30
0.0
  0
VERTEX
  8
DETAIL
  6
CONTINUOUS
 62
     5
 10
420.66473063513388
 20
-135.29119785209355
 30
0.0
  0
VERTEX
  8
DETAIL
  6
CONTINUOUS
 62
     5
 10
421.31659938887992
 20
-135.04750791032035
 30
0.0
  0
VERTEX
  8
DETAIL
  6
CONTINUOUS
 62
     5
 10
421.94439170990114
 20
-134.74687273375213
 30
0.0
  0
VERTEX
  8
DETAIL
  6
CONTINUOUS
 62
     5
 10
422.54076208640038
 20
-134.38801641128299
 30
0.0
  0
VERTEX
  8
DETAIL
  6
CONTINUOUS
 62
     5
 10
423.09737263057701
 20
-133.96981723603088
 30
0.0
  0
VERTEX
  8
DETAIL
  6
CONTINUOUS
 62
     5
 10
423.60369508515731
 20
-133.49203832372615
 30
0.0
  0
VERTEX
  8
DETAIL
  6
CONTINUOUS
 62
     5
 10
424.04783366937932
 20
-132.95559614450536
 30
0.0
  0
VERTEX
  8
DETAIL
  6
CONTINUOUS
 62
     5
 10
424.41575107624823
 20
-132.36447761906672
 30
0.0
  0
VERTEX
  8
DETAIL
  6
CONTINUOUS
 62
     5
 10
424.6930671521348
 20
-131.72560127477183
 30
0.0
  0
VERTEX
  8
DETAIL
  6
CONTINUOUS
 62
     5
 10
424.86596636148073
 20
-131.05030516662876
 30
0.0
  0
VERTEX
  8
DETAIL
  6
CONTINUOUS
 62
     5
 10
424.92500000000058
 20
-130.35664555487909
 30
0.0
  0
SEQEND
  8
DETAIL
  6
CONTINUOUS
 62
     5
  0
POLYLINE
  8
DETAIL
  6
CONTINUOUS
 62
     5
 66
     1
 10
0.0
 20
0.0
 30
0.0
  0
VERTEX
  8
DETAIL
  6
CONTINUOUS
 62
     5
 10
417.92500000000013
 20
-135.71897356372369
 30
0.0
  0
VERTEX
  8
DETAIL
  6
CONTINUOUS
 62
     5
 10
417.22963211054571
 20
-135.69243079095747
 30
0.0
  0
VERTEX
  8
DETAIL
  6
CONTINUOUS
 62
     5
 10
416.53831294697386
 20
-135.61270358698175
 30
0.0
  0
VERTEX
  8
DETAIL
  6
CONTINUOUS
 62
     5
 10
415.855351919827
 20
-135.47921719211246
 30
0.0
  0
VERTEX
  8
DETAIL
  6
CONTINUOUS
 62
     5
 10
415.18526936486637
 20
-135.29119785209355
 30
0.0
  0
VERTEX
  8
DETAIL
  6
CONTINUOUS
 62
     5
 10
414.53340061112038
 20
-135.04750791032035
 30
0.0
  0
VERTEX
  8
DETAIL
  6
CONTINUOUS
 62
     5
 10
413.90560829009911
 20
-134.74687273375213
 30
0.0
  0
VERTEX
  8
DETAIL
  6
CONTINUOUS
 62
     5
 10
413.30923791359987
 20
-134.38801641128299
 30
0.0
  0
VERTEX
  8
DETAIL
  6
CONTINUOUS
 62
     5
 10
412.75262736942312
 20
-133.96981723603088
 30
0.0
  0
VERTEX
  8
DETAIL
  6
CONTINUOUS
 62
     5
 10
412.24630491484299
 20
-133.49203832372615
 30
0.0
  0
VERTEX
  8
DETAIL
  6
CONTINUOUS
 62
     5
 10
411.80216633062082
 20
-132.95559614450536
 30
0.0
  0
VERTEX
  8
DETAIL
  6
CONTINUOUS
 62
     5
 10
411.43424892375191
 20
-132.36447761906672
 30
0.0
  0
VERTEX
  8
DETAIL
  6
CONTINUOUS
 62
     5
 10
411.15693284786562
 20
-131.72560127477183
 30
0.0
  0
VERTEX
  8
DETAIL
  6
CONTINUOUS
 62
     5
 10
410.98403363851963
 20
-131.05030516662876
 30
0.0
  0
VERTEX
  8
DETAIL
  6
CONTINUOUS
 62
     5
 10
410.92499999999973
 20
-130.35664555487909
 30
0.0
  0
SEQEND
  8
DETAIL
  6
CONTINUOUS
 62
     5
  0
POLYLINE
  8
DETAIL
  6
CONTINUOUS
 62
     5
 66
     1
 10
0.0
 20
0.0
 30
0.0
  0
VERTEX
  8
DETAIL
  6
CONTINUOUS
 62
     5
 10
417.92500000000013
 20
-172.93920512429941
 30
0.0
  0
VERTEX
  8
DETAIL
  6
CONTINUOUS
 62
     5
 10
418.44347684310685
 20
-172.91791423015977
 30
0.0
  0
VERTEX
  8
DETAIL
  6
CONTINUOUS
 62
     5
 10
418.95891214117904
 20
-172.85379712726666
 30
0.0
  0
VERTEX
  8
DETAIL
  6
CONTINUOUS
 62
     5
 10
419.46707874329189
 20
-172.74644218388539
 30
0.0
  0
VERTEX
  8
DETAIL
  6
CONTINUOUS
 62
     5
 10
419.96369744542955
 20
-172.59504894622216
 30
0.0
  0
VERTEX
  8
DETAIL
  6
CONTINUOUS
 62
     5
 10
420.44439516844005
 20
-172.39861219485809
 30
0.0
  0
VERTEX
  8
DETAIL
  6
CONTINUOUS
 62
     5
 10
420.90359878881799
 20
-172.15602219057604
 30
0.0
  0
VERTEX
  8
DETAIL
  6
CONTINUOUS
 62
     5
 10
421.33464885492981
 20
-171.86610332671134
 30
0.0
  0
VERTEX
  8
DETAIL
  6
CONTINUOUS
 62
     5
 10
421.72937408520073
 20
-171.52832186784846
 30
0.0
  0
VERTEX
  8
DETAIL
  6
CONTINUOUS
 62
     5
 10
422.07789778472619
 20
-171.14294427383979
 30
0.0
  0
VERTEX
  8
DETAIL
  6
CONTINUOUS
 62
     5
 10
422.36883936131528
 20
-170.71230493020121
 30
0.0
  0
VERTEX
  8
DETAIL
  6
CONTINUOUS
 62
     5
 10
422.58941638130813
 20
-170.24127315468098
 30
0.0
  0
VERTEX
  8
DETAIL
  6
CONTINUOUS
 62
     5
 10
422.72792029653795
 20
-169.74025693689356
 30
0.0
  0
VERTEX
  8
DETAIL
  6
CONTINUOUS
 62
     5
 10
422.7747791523006
 20
-169.22388957519931
 30
0.0
  0
SEQEND
  8
DETAIL
  6
CONTINUOUS
 62
     5
  0
POLYLINE
  8
DETAIL
  6
CONTINUOUS
 62
     5
 66
     1
 10
0.0
 20
0.0
 30
0.0
  0
VERTEX
  8
DETAIL
  6
CONTINUOUS
 62
     5
 10
413.07522084759961
 20
-169.22388957519931
 30
0.0
  0
VERTEX
  8
DETAIL
  6
CONTINUOUS
 62
     5
 10
413.12207970336362
 20
-169.74025693690083
 30
0.0
  0
VERTEX
  8
DETAIL
  6
CONTINUOUS
 62
     5
 10
413.26058361859714
 20
-170.24127315469488
 30
0.0
  0
VERTEX
  8
DETAIL
  6
CONTINUOUS
 62
     5
 10
413.48116063859595
 20
-170.71230493022054
 30
0.0
  0
VERTEX
  8
DETAIL
  6
CONTINUOUS
 62
     5
 10
413.77210221519215
 20
-171.14294427386321
 30
0.0
  0
VERTEX
  8
DETAIL
  6
CONTINUOUS
 62
     5
 10
414.12062591472613
 20
-171.52832186787401
 30
0.0
  0
VERTEX
  8
DETAIL
  6
CONTINUOUS
 62
     5
 10
414.51535114500604
 20
-171.86610332673769
 30
0.0
  0
VERTEX
  8
DETAIL
  6
CONTINUOUS
 62
     5
 10
414.94640121112661
 20
-172.15602219060358
 30
0.0
  0
VERTEX
  8
DETAIL
  6
CONTINUOUS
 62
     5
 10
415.4056048315133
 20
-172.398612194885
 30
0.0
  0
VERTEX
  8
DETAIL
  6
CONTINUOUS
 62
     5
 10
415.88630255453455
 20
-172.59504894624075
 30
0.0
  0
VERTEX
  8
DETAIL
  6
CONTINUOUS
 62
     5
 10
416.38292125668391
 20
-172.74644218388991
 30
0.0
  0
VERTEX
  8
DETAIL
  6
CONTINUOUS
 62
     5
 10
416.891087858807
 20
-172.85379712726242
 30
0.0
  0
VERTEX
  8
DETAIL
  6
CONTINUOUS
 62
     5
 10
417.40652315688664
 20
-172.91791423015698
 30
0.0
  0
SEQEND
  8
DETAIL
  6
CONTINUOUS
 62
     5
  0
LINE
  8
BASIS
  6
CENTER
 62
     6
 10
417.92500000000013
 20
-163.66269030891249
 30
0.0
 11
417.92500000000013
 21
-188.39974813549901
 31
0.0
  0
LINE
  8
BASIS
  6
CENTER
 62
     6
 10
417.92500000000013
 20
-122.216585025764
 30
0.0
 11
417.92499999999973
 21
-154.8997481355
 31
0.0
  0
LINE
  8
BASIS
  6
CENTER
 62
     6
 10
406.44946063523588
 20
-130.35664555488
 30
0.0
 11
430.12412575566748
 21
-130.35664555488
 31
0.0
  0
LINE
  8
BASIS
  6
CENTER
 62
     6
 10
409.53907235566658
 20
-169.22388957519931
 30
0.0
 11
426.66123960618359
 21
-169.22388957519931
 31
0.0
  0
INSERT
  8
SIZE
  2
SD11
 10
0.0
 20
0.0
 30
0.0
 41
1.0
 42
1.0
 43
1.0
1001
ACAD
1000
DSTYLE
1002
{
1070
    40
1040
10.0
1070
    41
1040
3.0
1070
   140
1040
3.0
1070
   144
1040
1.0
1070
   176
1070
   256
1070
   177
1070
   256
1070
   178
1070
   256
1002
}
  0
INSERT
  8
SIZE
  2
SD12
 10
0.0
 20
0.0
 30
0.0
 41
1.0
 42
1.0
 43
1.0
1001
ACAD
1000
DSTYLE
1002
{
1070
    40
1040
10.0
1070
    41
1040
3.0
1070
   140
1040
3.0
1070
   144
1040
1.0
1070
   176
1070
   256
1070
   177
1070
   256
1070
   178
1070
   256
1002
}
  0
INSERT
  8
SIZE
  2
SD13
 10
0.0
 20
0.0
 30
0.0
 41
1.0
 42
1.0
 43
1.0
1001
ACAD
1000
DSTYLE
1002
{
1070
    40
1040
10.0
1070
    41
1040
3.0
1070
   140
1040
3.0
1070
   144
1040
1.0
1070
   176
1070
   256
1070
   177
1070
   256
1070
   178
1070
   256
1002
}
  0
INSERT
  8
SIZE
  2
SD14
 10
0.0
 20
0.0
 30
0.0
 41
1.0
 42
1.0
 43
1.0
1001
ACAD
1000
DSTYLE
1002
{
1070
    40
1040
10.0
1070
    41
1040
3.0
1070
   140
1040
3.0
1070
   144
1040
1.0
1070
   176
1070
   256
1070
   177
1070
   256
1070
   178
1070
   256
1002
}
  0
INSERT
  8
SIZE
  2
SD15
 10
0.0
 20
0.0
 30
0.0
 41
1.0
 42
1.0
 43
1.0
1001
ACAD
1000
DSTYLE
1002
{
1070
    40
1040
10.0
1070
    41
1040
3.0
1070
   140
1040
3.0
1070
   144
1040
1.0
1070
   176
1070
   256
1070
   177
1070
   256
1070
   178
1070
   256
1002
}
  0
INSERT
  8
SIZE
  2
SD16
 10
0.0
 20
0.0
 30
0.0
 41
1.0
 42
1.0
 43
1.0
1001
ACAD
1000
DSTYLE
1002
{
1070
    40
1040
10.0
1070
    41
1040
3.0
1070
   140
1040
3.0
1070
   144
1040
1.0
1070
   176
1070
   256
1070
   177
1070
   256
1070
   178
1070
   256
1002
}
  0
INSERT
  8
SIZE
  2
SD17
 10
0.0
 20
0.0
 30
0.0
 41
1.0
 42
1.0
 43
1.0
1001
ACAD
1000
DSTYLE
1002
{
1070
    40
1040
10.0
1070
    41
1040
3.0
1070
   140
1040
3.0
1070
   144
1040
1.0
1070
   176
1070
   256
1070
   177
1070
   256
1070
   178
1070
   256
1002
}
  0
INSERT
  8
SIZE
  2
SD18
 10
0.0
 20
0.0
 30
0.0
 41
1.0
 42
1.0
 43
1.0
1001
ACAD
1000
DSTYLE
1002
{
1070
    40
1040
10.0
1070
    41
1040
3.0
1070
   140
1040
3.0
1070
   144
1040
1.0
1070
   176
1070
   256
1070
   177
1070
   256
1070
   178
1070
   256
1002
}
  0
INSERT
  8
SIZE
  2
SD19
 10
0.0
 20
0.0
 30
0.0
 41
1.0
 42
1.0
 43
1.0
1001
ACAD
1000
DSTYLE
1002
{
1070
    40
1040
10.0
1070
    41
1040
3.0
1070
   140
1040
3.0
1070
   144
1040
1.0
1070
   176
1070
   256
1070
   177
1070
   256
1070
   178
1070
   256
1002
}
  0
INSERT
  8
SIZE
  2
SD20
 10
0.0
 20
0.0
 30
0.0
 41
1.0
 42
1.0
 43
1.0
1001
ACAD
1000
DSTYLE
1002
{
1070
    40
1040
10.0
1070
    41
1040
3.0
1070
   140
1040
3.0
1070
   144
1040
1.0
1070
   176
1070
   256
1070
   177
1070
   256
1070
   178
1070
   256
1002
}
  0
CIRCLE
  8
ARRANGE
  6
CONTINUOUS
 62
     1
 10
0.0
 20
0.0
 30
0.0
 40
15.0
  0
LINE
  8
BASIS
  6
CENTER
 62
     6
 10
0.0
 20
0.0
 30
0.0
 11
0.0
 21
-359.55150035127622
 31
0.0
1001
GENIUS_GENOBJ-N-CEN_13
1002
{
1000
OWNER
1000
GEN
1002
}
1001
GENIUS_GENODEF_13
1002
{
1000
HIER
1070
     0
1002
}
1002
{
1000
MANEDIT
1070
     0
1002
}
1002
{
1000
NOSEL
1070
     0
1002
}
1002
{
1000
BEHIND
1070
     0
1002
}
1002
{
1000
OTHER
1070
     0
1002
}
1002
{
1000
REACTOR
1002
}
  0
CIRCLE
  8
FIX
  6
CONTINUOUS
 62
    11
 10
199.02499999999921
 20
-24.299748135499389
 30
0.0
 40
3.0
  0
CIRCLE
  8
FIX
  6
CONTINUOUS
 62
    11
 10
199.02499999999921
 20
-336.79974813549939
 30
0.0
 40
3.0
  0
CIRCLE
  8
FIX
  6
CONTINUOUS
 62
    11
 10
-310.97500000000082
 20
-336.79974813549939
 30
0.0
 40
3.0
  0
CIRCLE
  8
FIX
  6
CONTINUOUS
 62
    11
 10
-310.97500000000082
 20
-24.299748135499389
 30
0.0
 40
3.0
  0
TEXT
  8
NOTE
  6
CONTINUOUS
 62
     4
 10
-9.1194708774987703
 20
-444.7922689777044
 30
0.0
 40
30.0
  1
D 5-φ20
 41
1.0
  0
LINE
  8
NOTE
  6
CONTINUOUS
 62
     4
 10
-139.95330880817821
 20
-207.87222914271209
 30
0.0
 11
-50.251848752169728
 21
-452.39756794015221
 31
0.0
  0
LINE
  8
NOTE
  6
CONTINUOUS
 62
     4
 10
-69.317788292268233
 20
-245.60304783123399
 30
0.0
 11
-50.251848752169728
 21
-452.39756794015221
 31
0.0
  0
LINE
  8
NOTE
  6
CONTINUOUS
 62
     4
 10
189.87696740112179
 20
-452.39756794015221
 30
0.0
 11
-50.251848752169728
 21
-452.39756794015221
 31
0.0
  0
TEXT
  8
NOTE
  6
CONTINUOUS
 62
     4
 10
578.58288372039976
 20
-530.70569462897743
 30
0.0
 40
30.0
  1
AH 4-M10-12
 41
1.0
  0
LINE
  8
NOTE
  6
CONTINUOUS
 62
     4
 10
571.26184260471371
 20
-537.08684408407669
 30
0.0
 11
896.56006604014328
 21
-537.08684408407669
 31
0.0
  0
LINE
  8
NOTE
  6
CONTINUOUS
 62
     4
 10
203.58703834601101
 20
-342.69690172876608
 30
0.0
 11
571.26184260471371
 21
-537.08684408407669
 31
0.0
  0
CIRCLE
  8
DETAIL
  6
CONTINUOUS
 62
     5
 10
-361.3750000000004
 20
-121.0997481354986
 30
0.0
 40
10.0
  0
CIRCLE
  8
DETAIL
  6
CONTINUOUS
 62
     5
 10
120.6249999999995
 20
-66.099748135498643
 30
0.0
 40
10.0
  0
CIRCLE
  8
DETAIL
  6
CONTINUOUS
 62
     5
 10
281.6249999999996
 20
-66.099748135498643
 30
0.0
 40
10.0
  0
LINE
  8
NOTE
  6
CONTINUOUS
 62
     4
 10
117.93277196288
 20
-75.730527345726159
 30
0.0
 11
-50.251848752169728
 21
-452.39756794015221
 31
0.0
  0
LINE
  8
NOTE
  6
CONTINUOUS
 62
     4
 10
276.37087080942592
 20
-74.608221938053475
 30
0.0
 11
-50.251848752169728
 21
-452.39756794015221
 31
0.0
  0
LINE
  8
NOTE
  6
CONTINUOUS
 62
     4
 10
-354.70655182636818
 20
-128.55171424892001
 30
0.0
 11
-50.251848752169728
 21
-452.39756794015221
 31
0.0
  0
LINE
  8
NOTE
  6
CONTINUOUS
 62
     4
 10
-77.593738918496911
 20
-82.706412677771823
 30
0.0
 11
-139.95330880817821
 21
-207.87222914271209
 31
0.0
  0
INSERT
  8
SIZE
  2
SD21
 10
0.0
 20
0.0
 30
0.0
 41
1.0
 42
1.0
 43
1.0
1001
ACAD
1000
DSTYLE
1002
{
1070
    40
1040
10.0
1070
    41
1040
3.0
1070
   140
1040
3.0
1070
   176
1070
   256
1070
   177
1070
   256
1070
   178
1070
   256
1002
}
  0
INSERT
  8
SIZE
  2
SD22
 10
0.0
 20
0.0
 30
0.0
 41
1.0
 42
1.0
 43
1.0
1001
ACAD
1000
DSTYLE
1002
{
1070
    40
1040
10.0
1070
    41
1040
3.0
1070
   140
1040
3.0
1070
   176
1070
   256
1070
   177
1070
   256
1070
   178
1070
   256
1002
}
  0
INSERT
  8
SIZE
  2
SD23
 10
0.0
 20
0.0
 30
0.0
 41
1.0
 42
1.0
 43
1.0
1001
ACAD
1000
DSTYLE
1002
{
1070
    40
1040
10.0
1070
    41
1040
3.0
1070
   140
1040
3.0
1070
   176
1070
   256
1070
   177
1070
   256
1070
   178
1070
   256
1002
}
  0
INSERT
  8
SIZE
  2
SD24
 10
0.0
 20
0.0
 30
0.0
 41
1.0
 42
1.0
 43
1.0
1001
ACAD
1000
DSTYLE
1002
{
1070
    40
1040
10.0
1070
    41
1040
3.0
1070
   140
1040
3.0
1070
   176
1070
   256
1070
   177
1070
   256
1070
   178
1070
   256
1002
}
  0
INSERT
  8
SIZE
  2
SD25
 10
0.0
 20
0.0
 30
0.0
 41
1.0
 42
1.0
 43
1.0
1001
ACAD
1000
DSTYLE
1002
{
1070
    40
1040
10.0
1070
    41
1040
3.0
1070
   140
1040
3.0
1070
   176
1070
   256
1070
   177
1070
   256
1070
   178
1070
   256
1002
}
  0
LINE
  8
OUTLINE
  6
CONTINUOUS
 62
     3
 10
-411.57300571840091
 20
-137.11873965241489
 30
0.0
 11
-411.57300571840091
 21
-56.78075660822492
 31
0.0
  0
LINE
  8
OUTLINE
  6
CONTINUOUS
 62
     3
 10
-411.57300571840091
 20
-56.78075660822492
 30
0.0
 11
-411.56674113939971
 21
-56.72294236049833
 31
0.0
  0
LINE
  8
OUTLINE
  6
CONTINUOUS
 62
     3
 10
-411.56674100810039
 20
-137.17655443400031
 30
0.0
 11
-411.57300571840091
 21
-137.11873965241489
 31
0.0
  0
LINE
  8
OUTLINE
  6
CONTINUOUS
 62
     3
 10
-401.97499999999991
 20
-49.476276849499072
 30
0.0
 11
-401.97499999999991
 21
-51.949748135499931
 31
0.0
  0
LINE
  8
OUTLINE
  6
CONTINUOUS
 62
     3
 10
-401.97499999999991
 20
-141.94974813549899
 30
0.0
 11
-401.97499999999991
 21
-144.42321942139981
 31
0.0
  0
LINE
  8
OUTLINE
  6
CONTINUOUS
 62
     3
 10
-399.97499999999951
 20
-45.499748135499203
 30
0.0
 11
-399.97499999999951
 21
-48.449748135499931
 31
0.0
  0
LINE
  8
OUTLINE
  6
CONTINUOUS
 62
     3
 10
-399.97499999999951
 20
-298.15658031929962
 30
0.0
 11
-399.97499999999951
 21
-300.39974813549981
 31
0.0
  0
LINE
  8
OUTLINE
  6
CONTINUOUS
 62
     3
 10
-399.97499999999951
 20
-300.39966680110018
 30
0.0
 11
-399.97499999999991
 21
-145.44974813550081
 31
0.0
  0
LINE
  8
OUTLINE
  6
CONTINUOUS
 62
     3
 10
-371.46139840810059
 20
-330.4172012064999
 30
0.0
 11
-371.54881939660072
 21
-320.39974813549969
 31
0.0
  0
LINE
  8
OUTLINE
  6
CONTINUOUS
 62
     3
 10
-336.27500000000049
 20
-9.9997481355001128
 30
0.0
 11
-336.27500000000049
 21
-30.4997481354992
 31
0.0
  0
LINE
  8
OUTLINE
  6
CONTINUOUS
 62
     3
 10
-336.27500000000049
 20
-332.3997481354989
 30
0.0
 11
-336.27500000000049
 21
-341.59974813549962
 31
0.0
  0
LINE
  8
OUTLINE
  6
CONTINUOUS
 62
     3
 10
-326.27500000000049
 20
-349.79974813549887
 30
0.0
 11
-326.27500000000049
 21
-351.59949627099991
 31
0.0
  0
LINE
  8
OUTLINE
  6
CONTINUOUS
 62
     3
 10
-326.27500000000049
 20
-1.799748135500294
 30
0.0
 11
-326.27500000000049
 21
0.0000000001011813
 31
0.0
  0
LINE
  8
OUTLINE
  6
CONTINUOUS
 62
     3
 10
-316.97499999999991
 20
-4.7997481355002938
 30
0.0
 11
-316.97499999999991
 21
-24.299748135500302
 31
0.0
  0
LINE
  8
OUTLINE
  6
CONTINUOUS
 62
     3
 10
-304.97499999999951
 20
-24.299748135500302
 30
0.0
 11
-304.97499999999951
 21
-4.7997481355002938
 31
0.0
  0
LINE
  8
OUTLINE
  6
CONTINUOUS
 62
     3
 10
-295.67499999999882
 20
-349.79974813549887
 30
0.0
 11
-295.67499999999882
 21
-351.59949627099991
 31
0.0
  0
LINE
  8
OUTLINE
  6
CONTINUOUS
 62
     3
 10
-295.67499999999882
 20
-1.799748135500294
 30
0.0
 11
-295.67499999999882
 21
0.0000000001011813
 31
0.0
  0
LINE
  8
OUTLINE
  6
CONTINUOUS
 62
     3
 10
-285.67499999999882
 20
-341.59974813549962
 30
0.0
 11
-285.67499999999882
 21
-332.3997481354989
 31
0.0
  0
LINE
  8
OUTLINE
  6
CONTINUOUS
 62
     3
 10
-285.67499999999882
 20
-30.4997481354992
 30
0.0
 11
-285.67499999999882
 21
-9.9997481355001128
 31
0.0
  0
LINE
  8
OUTLINE
  6
CONTINUOUS
 62
     3
 10
400.02500000000049
 20
-242.6997481354781
 30
0.0
 11
459.50160682430118
 21
-226.76303936830101
 31
0.0
  0
LINE
  8
OUTLINE
  6
CONTINUOUS
 62
     3
 10
-326.27500000000049
 20
-349.79974813549887
 30
0.0
 11
-295.67499999999882
 21
-349.79974813549887
 31
0.0
  0
LINE
  8
OUTLINE
  6
CONTINUOUS
 62
     3
 10
183.7249999999994
 20
-349.79974813549887
 30
0.0
 11
214.32500000000121
 21
-349.79974813549887
 31
0.0
  0
LINE
  8
OUTLINE
  6
CONTINUOUS
 62
     3
 10
142.31147456190001
 20
-332.3997481354989
 30
0.0
 11
-48.775000003212419
 21
-332.39974813549838
 31
0.0
  0
LINE
  8
OUTLINE
  6
CONTINUOUS
 62
     3
 10
-178.3749999967888
 20
-332.39974813549838
 30
0.0
 11
-285.67499999999831
 21
-332.3997481354989
 31
0.0
  0
LINE
  8
OUTLINE
  6
CONTINUOUS
 62
     3
 10
-336.27500000000009
 20
-332.3997481354989
 30
0.0
 11
-369.46147456199918
 21
-332.3997481354989
 31
0.0
  0
LINE
  8
OUTLINE
  6
CONTINUOUS
 62
     3
 10
173.7249999999994
 20
-320.3997481355002
 30
0.0
 11
144.39881939659921
 21
-320.3997481355002
 31
0.0
  0
LINE
  8
OUTLINE
  6
CONTINUOUS
 62
     3
 10
-379.97499999999951
 20
-320.39974813549969
 30
0.0
 11
-371.54881939660032
 21
-320.39974813549969
 31
0.0
  0
LINE
  8
OUTLINE
  6
CONTINUOUS
 62
     3
 10
224.32500000000121
 20
-320.39974813549969
 30
0.0
 11
380.02500000000049
 21
-320.39974813549969
 31
0.0
  0
LINE
  8
OUTLINE
  6
CONTINUOUS
 62
     3
 10
-406.54182432849888
 20
-141.82279434469891
 30
0.0
 11
-406.50215586500047
 21
-141.82583797779961
 31
0.0
  0
LINE
  8
OUTLINE
  6
CONTINUOUS
 62
     3
 10
-399.97499999999951
 20
-145.44974813550081
 30
0.0
 11
-401.00117694830033
 21
-145.42287674640079
 31
0.0
  0
LINE
  8
OUTLINE
  6
CONTINUOUS
 62
     3
 10
-401.97499999999991
 20
-141.94974813549899
 30
0.0
 11
-406.27142080009878
 21
-141.83724239739939
 31
0.0
  0
LINE
  8
OUTLINE
  6
CONTINUOUS
 62
     3
 10
-406.32186904269918
 20
-141.83566531509831
 30
0.0
 11
-406.27141644979918
 21
-141.8372425112
 31
0.0
  0
LINE
  8
OUTLINE
  6
CONTINUOUS
 62
     3
 10
-406.50215586500047
 20
-141.82583797779961
 30
0.0
 11
-406.32186904269918
 21
-141.83566531509831
 31
0.0
  0
LINE
  8
OUTLINE
  6
CONTINUOUS
 62
     3
 10
144.31139840809919
 20
-330.4172012064999
 30
0.0
 11
144.39881939659921
 21
-320.39974813549969
 31
0.0
  0
LINE
  8
OUTLINE
  6
CONTINUOUS
 62
     3
 10
173.7249999999994
 20
-9.9997481355001128
 30
0.0
 11
173.7249999999994
 21
-30.4997481354992
 31
0.0
  0
LINE
  8
OUTLINE
  6
CONTINUOUS
 62
     3
 10
173.7249999999994
 20
-320.39974813549969
 30
0.0
 11
173.7249999999994
 21
-341.59974813549962
 31
0.0
  0
LINE
  8
OUTLINE
  6
CONTINUOUS
 62
     3
 10
183.7249999999994
 20
-349.79974813549887
 30
0.0
 11
183.7249999999994
 21
-351.59949627099991
 31
0.0
  0
LINE
  8
OUTLINE
  6
CONTINUOUS
 62
     3
 10
183.7249999999994
 20
-1.799748135500294
 30
0.0
 11
183.7249999999994
 21
0.0000000001011813
 31
0.0
  0
LINE
  8
OUTLINE
  6
CONTINUOUS
 62
     3
 10
-406.50215586500047
 20
-52.073658293098333
 30
0.0
 11
-406.54182432849888
 21
-52.076701926199121
 31
0.0
  0
LINE
  8
OUTLINE
  6
CONTINUOUS
 62
     3
 10
-406.27142080009878
 20
-52.062253873599502
 30
0.0
 11
-401.97499999999991
 21
-51.949748135499021
 31
0.0
  0
LINE
  8
OUTLINE
  6
CONTINUOUS
 62
     3
 10
-401.00117694830033
 20
-48.476619524499931
 30
0.0
 11
-399.97499999999951
 21
-48.449748135499931
 31
0.0
  0
LINE
  8
OUTLINE
  6
CONTINUOUS
 62
     3
 10
-382.49587455329902
 20
-30.4997481354992
 30
0.0
 11
-384.9749999999994
 21
-30.4997481354992
 31
0.0
  0
LINE
  8
OUTLINE
  6
CONTINUOUS
 62
     3
 10
370.02500000000049
 20
-30.499748135500109
 30
0.0
 11
385.0250000000006
 21
-30.4997481354992
 31
0.0
  0
LINE
  8
OUTLINE
  6
CONTINUOUS
 62
     3
 10
-384.97492272819949
 20
-30.4997481354992
 30
0.0
 11
-336.27500000000049
 21
-30.4997481354992
 31
0.0
  0
LINE
  8
OUTLINE
  6
CONTINUOUS
 62
     3
 10
-285.67499999999927
 20
-30.499748135498749
 30
0.0
 11
173.7249999999994
 21
-30.499748135498749
 31
0.0
  0
LINE
  8
OUTLINE
  6
CONTINUOUS
 62
     3
 10
224.3250000000007
 20
-30.49974813549829
 30
0.0
 11
340.02500000000049
 21
-30.499748135498749
 31
0.0
  0
LINE
  8
OUTLINE
  6
CONTINUOUS
 62
     3
 10
448.92499999999927
 20
-109.8221374921565
 30
0.0
 11
457.55452510969923
 21
-111.34375559969951
 31
0.0
  0
LINE
  8
OUTLINE
  6
CONTINUOUS
 62
     3
 10
448.51182408880049
 20
-99.801655274299037
 30
0.0
 11
400.02500000000049
 21
-91.252119978599467
 31
0.0
  0
LINE
  8
OUTLINE
  6
CONTINUOUS
 62
     3
 10
193.02500000000009
 20
-4.7997481355002938
 30
0.0
 11
193.02500000000009
 21
-24.299748135500302
 31
0.0
  0
LINE
  8
OUTLINE
  6
CONTINUOUS
 62
     3
 10
205.02500000000049
 20
-24.299748135500302
 30
0.0
 11
205.02500000000049
 21
-4.7997481355002938
 31
0.0
  0
LINE
  8
OUTLINE
  6
CONTINUOUS
 62
     3
 10
214.32500000000121
 20
-349.79974813549887
 30
0.0
 11
214.32500000000121
 21
-351.59949627099991
 31
0.0
  0
LINE
  8
OUTLINE
  6
CONTINUOUS
 62
     3
 10
214.32500000000121
 20
-1.799748135500294
 30
0.0
 11
214.32500000000121
 21
0.0000000001011813
 31
0.0
  0
LINE
  8
OUTLINE
  6
CONTINUOUS
 62
     3
 10
-326.27500000000049
 20
-1.799748135500294
 30
0.0
 11
-319.9749999999994
 21
-1.799748135500294
 31
0.0
  0
LINE
  8
OUTLINE
  6
CONTINUOUS
 62
     3
 10
-301.97499999999991
 20
-1.799748135500294
 30
0.0
 11
-295.67499999999882
 21
-1.799748135500294
 31
0.0
  0
LINE
  8
OUTLINE
  6
CONTINUOUS
 62
     3
 10
183.7249999999994
 20
-1.799748135500294
 30
0.0
 11
190.02500000000049
 21
-1.799748135500294
 31
0.0
  0
LINE
  8
OUTLINE
  6
CONTINUOUS
 62
     3
 10
208.02500000000009
 20
-1.799748135500294
 30
0.0
 11
214.32500000000121
 21
-1.799748135500294
 31
0.0
  0
LINE
  8
OUTLINE
  6
CONTINUOUS
 62
     3
 10
224.32500000000121
 20
-341.59974813549962
 30
0.0
 11
224.32500000000121
 21
-320.3997481355002
 31
0.0
  0
LINE
  8
OUTLINE
  6
CONTINUOUS
 62
     3
 10
224.32500000000121
 20
-30.4997481354992
 30
0.0
 11
224.32500000000121
 21
-9.9997481355001128
 31
0.0
  0
LINE
  8
OUTLINE
  6
CONTINUOUS
 62
     3
 10
340.02500000000049
 20
-30.4997481354992
 30
0.0
 11
340.02500000000049
 21
-22.499748135500109
 31
0.0
  0
LINE
  8
OUTLINE
  6
CONTINUOUS
 62
     3
 10
370.02500000000049
 20
-30.4997481354992
 30
0.0
 11
370.02500000000049
 21
-22.499748135500109
 31
0.0
  0
LINE
  8
OUTLINE
  6
CONTINUOUS
 62
     3
 10
400.02500000000049
 20
-45.499825407299561
 30
0.0
 11
400.02500000000049
 21
-91.252119978599467
 31
0.0
  0
LINE
  8
OUTLINE
  6
CONTINUOUS
 62
     3
 10
400.02500000000049
 20
-242.6997481354781
 30
0.0
 11
400.02500000000049
 21
-300.39966375119889
 31
0.0
  0
LINE
  8
OUTLINE
  6
CONTINUOUS
 62
     3
 10
448.92499999999927
 20
-100.29405915080019
 30
0.0
 11
448.92499999999927
 21
-109.8221374921002
 31
0.0
  0
ARC
  8
OUTLINE
  6
CONTINUOUS
 62
     3
 10
355.02500000000049
 20
-22.499748135500109
 30
0.0
 40
15.0
 50
0.0
 51
180.0
  0
ARC
  8
OUTLINE
  6
CONTINUOUS
 62
     3
 10
183.7249999999994
 20
-341.59974813549962
 30
0.0
 40
10.0
 50
180.0
 51
270.0
  0
ARC
  8
OUTLINE
  6
CONTINUOUS
 62
     3
 10
214.32500000000121
 20
-341.59974813549962
 30
0.0
 40
10.0
 50
270.0
 51
0.0
  0
ARC
  8
OUTLINE
  6
CONTINUOUS
 62
     3
 10
214.32500000000121
 20
-9.9997481355001128
 30
0.0
 40
10.0
 50
0.0
 51
90.0
  0
ARC
  8
OUTLINE
  6
CONTINUOUS
 62
     3
 10
183.7249999999994
 20
-9.9997481355001128
 30
0.0
 40
10.0
 50
90.0
 51
180.0
  0
ARC
  8
OUTLINE
  6
CONTINUOUS
 62
     3
 10
199.02499999999921
 20
-24.299748135500302
 30
0.0
 40
6.0
 50
180.0
 51
0.0
  0
ARC
  8
OUTLINE
  6
CONTINUOUS
 62
     3
 10
208.02500000000009
 20
-4.7997481355002938
 30
0.0
 40
3.0
 50
90.0
 51
180.0
  0
ARC
  8
OUTLINE
  6
CONTINUOUS
 62
     3
 10
190.02500000000049
 20
-4.7997481355002938
 30
0.0
 40
3.0
 50
0.0
 51
90.0
  0
ARC
  8
OUTLINE
  6
CONTINUOUS
 62
     3
 10
-326.27500000000049
 20
-341.59974813549962
 30
0.0
 40
10.0
 50
180.0
 51
270.0
  0
ARC
  8
OUTLINE
  6
CONTINUOUS
 62
     3
 10
-295.67499999999882
 20
-341.59974813549962
 30
0.0
 40
10.0
 50
270.0
 51
0.0
  0
ARC
  8
OUTLINE
  6
CONTINUOUS
 62
     3
 10
-295.67499999999882
 20
-9.9997481355001128
 30
0.0
 40
10.0
 50
0.0
 51
90.0
  0
ARC
  8
OUTLINE
  6
CONTINUOUS
 62
     3
 10
-326.27500000000049
 20
-9.9997481355001128
 30
0.0
 40
10.0
 50
90.0
 51
180.0
  0
ARC
  8
OUTLINE
  6
CONTINUOUS
 62
     3
 10
-310.97500000000082
 20
-24.299748135500302
 30
0.0
 40
6.0
 50
180.0
 51
0.0
  0
ARC
  8
OUTLINE
  6
CONTINUOUS
 62
     3
 10
-301.97499999999991
 20
-4.7997481355002938
 30
0.0
 40
3.0
 50
90.0
 51
180.0
  0
ARC
  8
OUTLINE
  6
CONTINUOUS
 62
     3
 10
-319.9749999999994
 20
-4.7997481355002938
 30
0.0
 40
3.0
 50
0.0
 51
90.0
  0
ARC
  8
OUTLINE
  6
CONTINUOUS
 62
     3
 10
-400.97500000000082
 20
-49.476276849499072
 30
0.0
 40
1.0
 50
91.500000000041908
 51
180.0
  0
ARC
  8
OUTLINE
  6
CONTINUOUS
 62
     3
 10
-400.97500000000082
 20
-144.42321942139981
 30
0.0
 40
1.0
 50
180.0
 51
268.49999999995811
  0
ARC
  8
OUTLINE
  6
CONTINUOUS
 62
     3
 10
-113.5750000000007
 20
1766.6202518646
 30
0.0
 40
2100.02
 50
268.23175210381572
 51
271.76824789618411
  0
ARC
  8
OUTLINE
  6
CONTINUOUS
 62
     3
 10
-369.46147456199918
 20
-330.39974813549969
 30
0.0
 40
2.0
 50
180.49999999996541
 51
270.0
  0
ARC
  8
OUTLINE
  6
CONTINUOUS
 62
     3
 10
142.31147456190001
 20
-330.39974813549969
 30
0.0
 40
2.0
 50
270.0
 51
359.50000000003467
  0
ARC
  8
OUTLINE
  6
CONTINUOUS
 62
     3
 10
211.02499999999961
 20
-171.94974813549899
 30
0.0
 40
260.0
 50
349.59435020746571
 51
11.71429850880131
  0
ARC
  8
OUTLINE
  6
CONTINUOUS
 62
     3
 10
456.9134163731996
 20
-217.1037811055009
 30
0.0
 40
10.0
 50
284.99999999999437
 51
349.59435020746571
  0
ARC
  8
OUTLINE
  6
CONTINUOUS
 62
     3
 10
455.81804333309952
 20
-121.1918331298
 30
0.0
 40
10.0
 50
11.71429850880131
 51
79.999999999968196
  0
ARC
  8
OUTLINE
  6
CONTINUOUS
 62
     3
 10
448.42499660410112
 20
-100.2940585519998
 30
0.0
 40
0.5
 50
359.99993138406609
 51
79.999604854222653
  0
ARC
  8
OUTLINE
  6
CONTINUOUS
 62
     3
 10
-384.9749999999994
 20
-45.499748135499203
 30
0.0
 40
15.0
 50
90.0
 51
180.0
  0
ARC
  8
OUTLINE
  6
CONTINUOUS
 62
     3
 10
380.02500000000049
 20
-300.39974813549981
 30
0.0
 40
20.0
 50
269.99976699415578
 51
0.0002417431627196
  0
ARC
  8
OUTLINE
  6
CONTINUOUS
 62
     3
 10
-379.97499999999951
 20
-300.39974813549981
 30
0.0
 40
20.0
 50
179.99976699407759
 51
270.00024174316269
  0
ARC
  8
OUTLINE
  6
CONTINUOUS
 62
     3
 10
385.0250000000006
 20
-45.499748135499203
 30
0.0
 40
15.0
 50
359.9997048434052
 51
90.000306685248759
  0
TEXT
  8
NOTE
  6
CONTINUOUS
 62
     4
 10
-440.86089518726658
 20
-784.41649567323361
 30
0.0
 40
40.0
  1
Installation position diagram when viewing from top
 41
0.7
  0
LINE
  8
NOTE
  6
CONTINUOUS
 62
     4
 10
-454.19598627140329
 20
-806.74062267242755
 30
0.0
 11
646.2704834839642
 21
-806.74062267242755
 31
0.0
  0
TEXT
  8
NOTE
  6
CONTINUOUS
 62
     4
 10
710.31258025885097
 20
-784.41649567323361
 30
0.0
 40
40.0
  1
Unit : mm
 41
0.7
  0
LINE
  8
DETAIL
  6
CONTINUOUS
 62
     5
 10
-411.56677828550067
 20
-137.1769291163989
 30
0.0
 11
-411.42379735809982
 21
-137.67596490739919
 31
0.0
  0
LINE
  8
DETAIL
  6
CONTINUOUS
 62
     5
 10
-411.42379735809982
 20
-137.67596490739919
 30
0.0
 11
-410.96797601660001
 21
-138.74841354149879
 31
0.0
  0
LINE
  8
DETAIL
  6
CONTINUOUS
 62
     5
 10
-410.96797601660001
 20
-138.74841354149879
 30
0.0
 11
-410.32795221510008
 21
-139.72694449469921
 31
0.0
  0
LINE
  8
DETAIL
  6
CONTINUOUS
 62
     5
 10
-410.32795221510008
 20
-139.72694449469921
 30
0.0
 11
-409.52097507859878
 21
-140.5626957183992
 31
0.0
  0
LINE
  8
DETAIL
  6
CONTINUOUS
 62
     5
 10
-409.52097507859878
 20
-140.5626957183992
 30
0.0
 11
-408.57240914059952
 21
-141.2140397745984
 31
0.0
  0
LINE
  8
DETAIL
  6
CONTINUOUS
 62
     5
 10
-408.57240914059952
 20
-141.2140397745984
 30
0.0
 11
-407.51884786300019
 21
-141.645209019699
 31
0.0
  0
LINE
  8
DETAIL
  6
CONTINUOUS
 62
     5
 10
-407.51884786300019
 20
-141.645209019699
 30
0.0
 11
-406.54190847039888
 21
-141.82278751679951
 31
0.0
  0
LINE
  8
DETAIL
  6
CONTINUOUS
 62
     5
 10
-406.27141644979918
 20
-52.062253759698713
 30
0.0
 11
-406.32186904269918
 21
-52.063830955898773
 31
0.0
  0
LINE
  8
DETAIL
  6
CONTINUOUS
 62
     5
 10
-406.32186904269918
 20
-52.063830955898773
 30
0.0
 11
-406.50215586500047
 21
-52.073658293098561
 31
0.0
  0
LINE
  8
DETAIL
  6
CONTINUOUS
 62
     5
 10
-406.54190895070082
 20
-52.076708793099222
 30
0.0
 11
-407.51826934910008
 21
-52.254122010599303
 31
0.0
  0
LINE
  8
DETAIL
  6
CONTINUOUS
 62
     5
 10
-407.51826934910008
 20
-52.254122010599303
 30
0.0
 11
-408.57260805019899
 21
-52.685564324099012
 31
0.0
  0
LINE
  8
DETAIL
  6
CONTINUOUS
 62
     5
 10
-408.57260805019899
 20
-52.685564324099012
 30
0.0
 11
-409.52152630739869
 21
-53.337268963199222
 31
0.0
  0
LINE
  8
DETAIL
  6
CONTINUOUS
 62
     5
 10
-409.52152630739869
 20
-53.337268963199222
 30
0.0
 11
-410.32827073469889
 21
-54.172952491698879
 31
0.0
  0
LINE
  8
DETAIL
  6
CONTINUOUS
 62
     5
 10
-410.32827073469889
 20
-54.172952491698879
 30
0.0
 11
-410.96797369930061
 21
-55.15107837199912
 31
0.0
  0
LINE
  8
DETAIL
  6
CONTINUOUS
 62
     5
 10
-410.96797369930061
 20
-55.15107837199912
 30
0.0
 11
-411.42368746009879
 21
-56.223195702099019
 31
0.0
  0
LINE
  8
DETAIL
  6
CONTINUOUS
 62
     5
 10
-411.42368746009879
 20
-56.223195702099019
 30
0.0
 11
-411.56677841589948
 21
-56.722567683199031
 31
0.0
  0
LINE
  8
OUTLINE
  6
CONTINUOUS
 62
     3
 10
-411.56677828550067
 20
-137.1769291163998
 30
0.0
 11
-411.42379735809982
 21
-137.67596490739899
 31
0.0
  0
LINE
  8
OUTLINE
  6
CONTINUOUS
 62
     3
 10
-411.42379735809982
 20
-137.67596490739899
 30
0.0
 11
-410.96797601660001
 21
-138.74841354149859
 31
0.0
  0
LINE
  8
OUTLINE
  6
CONTINUOUS
 62
     3
 10
-410.96797601660001
 20
-138.74841354149859
 30
0.0
 11
-410.32795221510008
 21
-139.72694449469941
 31
0.0
  0
LINE
  8
OUTLINE
  6
CONTINUOUS
 62
     3
 10
-410.32795221510008
 20
-139.72694449469941
 30
0.0
 11
-409.52097507859878
 21
-140.56269571840011
 31
0.0
  0
LINE
  8
OUTLINE
  6
CONTINUOUS
 62
     3
 10
-409.52097507859878
 20
-140.56269571840011
 30
0.0
 11
-408.57240914059952
 21
-141.2140397745986
 31
0.0
  0
LINE
  8
OUTLINE
  6
CONTINUOUS
 62
     3
 10
-408.57240914059952
 20
-141.2140397745986
 30
0.0
 11
-407.51884786300019
 21
-141.64520901969871
 31
0.0
  0
LINE
  8
OUTLINE
  6
CONTINUOUS
 62
     3
 10
-407.51884786300019
 20
-141.64520901969871
 30
0.0
 11
-406.54190847039888
 21
-141.82278751679931
 31
0.0
  0
LINE
  8
OUTLINE
  6
CONTINUOUS
 62
     3
 10
-406.27141644979918
 20
-52.062253759698933
 30
0.0
 11
-406.32186904269918
 21
-52.063830955899668
 31
0.0
  0
LINE
  8
OUTLINE
  6
CONTINUOUS
 62
     3
 10
-406.32186904269918
 20
-52.063830955899668
 30
0.0
 11
-406.50215586500047
 21
-52.073658293098333
 31
0.0
  0
LINE
  8
OUTLINE
  6
CONTINUOUS
 62
     3
 10
-406.54190895070082
 20
-52.076708793100572
 30
0.0
 11
-407.51826934910008
 21
-52.254122010600213
 31
0.0
  0
LINE
  8
OUTLINE
  6
CONTINUOUS
 62
     3
 10
-407.51826934910008
 20
-52.254122010600213
 30
0.0
 11
-408.57260805019899
 21
-52.685564324100362
 31
0.0
  0
LINE
  8
OUTLINE
  6
CONTINUOUS
 62
     3
 10
-408.57260805019899
 20
-52.685564324100362
 30
0.0
 11
-409.52152630740102
 21
-53.337268963199442
 31
0.0
  0
LINE
  8
OUTLINE
  6
CONTINUOUS
 62
     3
 10
-409.52152630740102
 20
-53.337268963199442
 30
0.0
 11
-410.32827073469889
 21
-54.172952491699789
 31
0.0
  0
LINE
  8
OUTLINE
  6
CONTINUOUS
 62
     3
 10
-410.32827073469889
 20
-54.172952491699789
 30
0.0
 11
-410.96797369930061
 21
-55.15107837199934
 31
0.0
  0
LINE
  8
OUTLINE
  6
CONTINUOUS
 62
     3
 10
-410.96797369930061
 20
-55.15107837199934
 30
0.0
 11
-411.42368746010101
 21
-56.22319570209924
 31
0.0
  0
LINE
  8
OUTLINE
  6
CONTINUOUS
 62
     3
 10
-411.42368746010101
 20
-56.22319570209924
 30
0.0
 11
-411.56677841589948
 21
-56.722567683199252
 31
0.0
  0
ENDSEC
  0
EOF
