  0
SECTION
  2
HEADER
  9
$ACADVER
  1
AC1009
  9
$INSBASE
 10
0.0
 20
0.0
 30
0.0
  9
$EXTMIN
 10
-560.0813524182722176
 20
-300.2013373278978179
 30
-0.0000000000112498
  9
$EXTMAX
 10
892.9217384407565987
 20
168.9434980241385063
 30
0.0000000000002956
  9
$LIMMIN
 10
0.0000014455781638
 20
-0.0000031812703583
  9
$LIMMAX
 10
5940.0000014455790733
 20
4199.9999968187294144
  9
$ORTHOMODE
 70
     0
  9
$REGENMODE
 70
     1
  9
$FILLMODE
 70
     1
  9
$QTEXTMODE
 70
     0
  9
$MIRRTEXT
 70
     0
  9
$DRAGMODE
 70
     2
  9
$LTSCALE
 40
10.0
  9
$OSMODE
 70
    37
  9
$ATTMODE
 70
     1
  9
$TEXTSIZE
 40
2.5
  9
$TRACEWID
 40
1.0
  9
$TEXTSTYLE
  7
STANDARD
  9
$CLAYER
  8
0
  9
$CELTYPE
  6
BYLAYER
  9
$CECOLOR
 62
   256
  9
$DIMSCALE
 40
1.0
  9
$DIMASZ
 40
3.149999999999999
  9
$DIMEXO
 40
0.0
  9
$DIMDLI
 40
12.0
  9
$DIMRND
 40
0.0
  9
$DIMDLE
 40
0.0
  9
$DIMEXE
 40
2.0
  9
$DIMTP
 40
0.1
  9
$DIMTM
 40
0.1
  9
$DIMTXT
 40
4.0
  9
$DIMCEN
 40
0.0
  9
$DIMTSZ
 40
0.0
  9
$DIMTOL
 70
     0
  9
$DIMLIM
 70
     0
  9
$DIMTIH
 70
     0
  9
$DIMTOH
 70
     0
  9
$DIMSE1
 70
     0
  9
$DIMSE2
 70
     0
  9
$DIMTAD
 70
     3
  9
$DIMZIN
 70
     8
  9
$DIMBLK
  1
OPEN30
  9
$DIMASO
 70
     1
  9
$DIMSHO
 70
     1
  9
$DIMPOST
  1

  9
$DIMAPOST
  1
"
  9
$DIMALT
 70
     0
  9
$DIMALTD
 70
     2
  9
$DIMALTF
 40
0.0393701
  9
$DIMLFAC
 40
1.0
  9
$DIMTOFL
 70
     1
  9
$DIMTVP
 40
0.0
  9
$DIMTIX
 70
     0
  9
$DIMSOXD
 70
     0
  9
$DIMSAH
 70
     0
  9
$DIMBLK1
  1

  9
$DIMBLK2
  1

  9
$DIMSTYLE
  2
MHIJIS
  9
$DIMCLRD
 70
     3
  9
$DIMCLRE
 70
     3
  9
$DIMCLRT
 70
     3
  9
$DIMTFAC
 40
0.71
  9
$DIMGAP
 40
1.0
  9
$LUNITS
 70
     2
  9
$LUPREC
 70
     2
  9
$SKETCHINC
 40
1.0
  9
$FILLETRAD
 40
25.0
  9
$AUNITS
 70
     0
  9
$AUPREC
 70
     0
  9
$MENU
  1
.
  9
$ELEVATION
 40
0.0
  9
$PELEVATION
 40
0.0
  9
$THICKNESS
 40
0.0
  9
$LIMCHECK
 70
     0
  9
$BLIPMODE
 70
     0
  9
$CHAMFERA
 40
25.0
  9
$CHAMFERB
 40
25.0
  9
$SKPOLY
 70
     0
  9
$TDCREATE
 40
2457676.4136574068106711
  9
$TDUPDATE
 40
2459755.7523379628546536
  9
$TDINDWG
 40
0.7185378588
  9
$TDUSRTIMER
 40
0.7185378588
  9
$USRTIMER
 70
     1
  9
$ANGBASE
 50
0.0
  9
$ANGDIR
 70
     0
  9
$PDMODE
 70
     0
  9
$PDSIZE
 40
0.0
  9
$PLINEWID
 40
0.0
  9
$COORDS
 70
     1
  9
$SPLFRAME
 70
     0
  9
$SPLINETYPE
 70
     6
  9
$SPLINESEGS
 70
     8
  9
$ATTDIA
 70
     1
  9
$ATTREQ
 70
     1
  9
$HANDLING
 70
     1
  9
$HANDSEED
  5
F9B2
  9
$SURFTAB1
 70
     6
  9
$SURFTAB2
 70
     6
  9
$SURFTYPE
 70
     6
  9
$SURFU
 70
     6
  9
$SURFV
 70
     6
  9
$UCSNAME
  2

  9
$UCSORG
 10
0.0
 20
0.0
 30
0.0
  9
$UCSXDIR
 10
1.0
 20
0.0
 30
0.0
  9
$UCSYDIR
 10
0.0
 20
1.0
 30
0.0
  9
$PUCSNAME
  2

  9
$PUCSORG
 10
0.0
 20
0.0
 30
0.0
  9
$PUCSXDIR
 10
1.0
 20
0.0
 30
0.0
  9
$PUCSYDIR
 10
0.0
 20
1.0
 30
0.0
  9
$USERI1
 70
     0
  9
$USERI2
 70
     0
  9
$USERI3
 70
     0
  9
$USERI4
 70
     0
  9
$USERI5
 70
     0
  9
$USERR1
 40
0.0
  9
$USERR2
 40
0.0
  9
$USERR3
 40
0.0
  9
$USERR4
 40
0.0
  9
$USERR5
 40
0.0
  9
$WORLDVIEW
 70
     1
  9
$SHADEDGE
 70
     3
  9
$SHADEDIF
 70
    70
  9
$TILEMODE
 70
     1
  9
$MAXACTVP
 70
    64
  9
$PLIMCHECK
 70
     0
  9
$PEXTMIN
 10
0.0
 20
0.0
 30
0.0
  9
$PEXTMAX
 10
0.0
 20
0.0
 30
0.0
  9
$PLIMMIN
 10
0.0
 20
0.0
  9
$PLIMMAX
 10
12.0
 20
9.0
  9
$UNITMODE
 70
     0
  9
$VISRETAIN
 70
     1
  9
$PLINEGEN
 70
     0
  9
$PSLTSCALE
 70
     0
  0
ENDSEC
  0
SECTION
  2
TABLES
  0
TABLE
  2
VPORT
 70
     1
  0
VPORT
  2
*ACTIVE
 70
     0
 10
0.0
 20
0.0
 11
1.0
 21
1.0
 12
166.4201930112421906
 22
-65.6289196518796416
 13
0.0
 23
0.0
 14
25.0
 24
25.0
 15
100.0
 25
100.0
 16
0.0
 26
0.0
 36
1.0
 17
0.0
 27
0.0
 37
0.0
 40
828.5512369259977277
 41
1.7632000000000001
 42
50.0
 43
0.0
 44
0.0
 50
0.0
 51
0.0
 71
     0
 72
 20000
 73
     1
 74
     3
 75
     0
 76
     0
 77
     0
 78
     0
  0
ENDTAB
  0
TABLE
  2
LTYPE
 70
    16
  0
LTYPE
  2
CONTINUOUS
 70
     0
  3
Solid line
 72
    65
 73
     0
 40
0.0
  0
LTYPE
  2
AM_ISO02W050
 70
     0
  3
__ __ __ __ __ __ __ __ __ __ __ __ __ __ __
 72
    65
 73
     2
 40
7.5
 49
6.0
 49
-1.5
  0
LTYPE
  2
AM_ISO08W050
 70
     0
  3
____ . ____ . ____ . ____ . ____ . ____ . ____
 72
    65
 73
     4
 40
18.0
 49
12.0
 49
-1.5
 49
3.0
 49
-1.5
  0
LTYPE
  2
AM_ISO09W050
 70
     0
  3
_____ . . _____ . . _____ . . ____ .. ____
 72
    65
 73
     6
 40
22.5
 49
12.0
 49
-1.5
 49
3.0
 49
-1.5
 49
3.0
 49
-1.5
  0
LTYPE
  2
AMCONSTR
 70
     0
  3
_______________________
 72
    65
 73
     2
 40
9999.0
 49
9999.0
 49
0.0
  0
LTYPE
  2
AM_ISO08W050X2
 70
     0
  3
__ . __ . __ . __ . __ . __
 72
    65
 73
     4
 40
9.0
 49
6.0
 49
-0.75
 49
1.5
 49
-0.75
  0
LTYPE
  2
AM_ISO02W050X2
 70
     0
  3
 _ _ _ _ _ _ _ _ _ _ _ _
 72
    65
 73
     2
 40
3.75
 49
3.0
 49
-0.75
  0
LTYPE
  2
AMZIGZAG
 70
     0
  3
/\/-/\/-/\/-/\/-/\/-/\/
 72
    65
 73
     2
 40
11.0000999999999998
 49
0.0001
 49
-11.0
  0
LTYPE
  2
ACJISWELD
 70
     0
  3
_ _ _ _ _
 72
    65
 73
     2
 40
2.0
 49
2.0
 49
-1.0
  0
LTYPE
  2
ACJISTGL
 70
     0
  3
_ _ _ _ _
 72
    65
 73
     2
 40
3.0
 49
2.0
 49
-1.0
  0
LTYPE
  2
ACJISTGB
 70
     0
  3
__ . . __ . .
 72
    65
 73
     6
 40
9.0
 49
4.0
 49
-1.0
 49
1.0
 49
-1.0
 49
1.0
 49
-1.0
  0
ENDTAB
  0
TABLE
  2
LAYER
 70
    52
  0
LAYER
  2
0
 70
     0
 62
     7
  6
CONTINUOUS
  0
LAYER
  2
OUTLINE
 70
     0
 62
     3
  6
CONTINUOUS
  0
LAYER
  2
DETAIL
 70
     0
 62
     5
  6
CONTINUOUS
  0
LAYER
  2
ARRANGE
 70
     0
 62
     1
  6
CONTINUOUS
  0
LAYER
  2
FIX
 70
     0
 62
    11
  6
CONTINUOUS
  0
LAYER
  2
SERVICESPACE
 70
     0
 62
     2
  6
AM_ISO02W050
  0
LAYER
  2
BASIS
 70
     0
 62
     6
  6
AM_ISO08W050
  0
LAYER
  2
NOTE
 70
     0
 62
     4
  6
CONTINUOUS
  0
ENDTAB
  0
TABLE
  2
STYLE
 70
    10
  0
STYLE
  2
STANDARD
 70
     0
 40
0.0
 41
0.7
 50
0.0
 71
     0
 42
2.5
  3
simplex.shx
  4
bigfont.shx
  0
STYLE
  2

 70
     1
 40
0.0
 41
1.0
 50
0.0
 71
     0
 42
2.5
  3
genltshp.shx
  4
extfont2.shx
  0
STYLE
  2
ACJISTS
 70
     0
 40
0.0
 41
1.0
 50
0.0
 71
     0
 42
2.5
  3
isocp.shx
  4

  0
STYLE
  2
ACJISGDT
 70
     0
 40
0.0
 41
1.0
 50
0.0
 71
     0
 42
2.5
  3
amgdt.shx
  4

  0
ENDTAB
  0
TABLE
  2
VIEW
 70
     6
  0
VIEW
  2
AM_VIEW1
 70
     0
 40
2100.0
 10
2719.6011018582330507
 20
3149.9999968187298691
 41
5439.2022008253097738
 11
0.0
 21
0.0
 31
1.0
 12
0.0
 22
0.0
 32
0.0
 42
50.0
 43
0.0
 44
0.0
 50
0.0
 71
     0
  0
VIEW
  2
AM_VIEW2
 70
     0
 40
2100.0
 10
3220.3989010329228222
 20
3149.9999968187298691
 41
5439.2022008253097738
 11
0.0
 21
0.0
 31
1.0
 12
0.0
 22
0.0
 32
0.0
 42
50.0
 43
0.0
 44
0.0
 50
0.0
 71
     0
  0
VIEW
  2
AM_VIEW3
 70
     0
 40
2100.0
 10
2719.6011018582330507
 20
1049.9999968187289596
 41
5439.2022008253097738
 11
0.0
 21
0.0
 31
1.0
 12
0.0
 22
0.0
 32
0.0
 42
50.0
 43
0.0
 44
0.0
 50
0.0
 71
     0
  0
VIEW
  2
AM_VIEW4
 70
     0
 40
2100.0
 10
3220.3989010329228222
 20
1049.9999968187289596
 41
5439.2022008253097738
 11
0.0
 21
0.0
 31
1.0
 12
0.0
 22
0.0
 32
0.0
 42
50.0
 43
0.0
 44
0.0
 50
0.0
 71
     0
  0
VIEW
  2
AM_VIEW5
 70
     0
 40
2100.0
 10
2970.0000014455781638
 20
2099.9999968187289596
 41
5439.2022008253097738
 11
0.0
 21
0.0
 31
1.0
 12
0.0
 22
0.0
 32
0.0
 42
50.0
 43
0.0
 44
0.0
 50
0.0
 71
     0
  0
VIEW
  2
AM_VIEW6
 70
     0
 40
4199.9580000000014479
 10
2970.0000014455781638
 20
2099.9999968187289596
 41
10878.2956176065999898
 11
0.0
 21
0.0
 31
1.0
 12
0.0
 22
0.0
 32
0.0
 42
50.0
 43
0.0
 44
0.0
 50
0.0
 71
     0
  0
ENDTAB
  0
TABLE
  2
UCS
 70
     0
  0
ENDTAB
  0
TABLE
  2
APPID
 70
    50
  0
APPID
  2
ACAD
 70
     0
  0
APPID
  2
ACAD_PSEXT
 70
     0
  0
APPID
  2
ACADANNOPO
 70
     0
  0
APPID
  2
ACADANNOTATIVE
 70
     0
  0
APPID
  2
ACAD_DSTYLE_DIMJAG
 70
     0
  0
APPID
  2
ACAD_DSTYLE_DIMTALN
 70
     0
  0
APPID
  2
ACAD_MLEADERVER
 70
     0
  0
APPID
  2
ACAD_NAV_VCDISPLAY
 70
     0
  0
APPID
  2
MCAD_NO_VIS
 70
     0
  0
APPID
  2
ACAD_TEMP_GRAPHIC
 70
     0
  0
APPID
  2
ACATTRIBSERVICES
 70
     0
  0
APPID
  2
DESIGNERASSEMBLIES
 70
     0
  0
APPID
  2
ACAD_DSTYLE_DIMBREAK
 70
     0
  0
APPID
  2
ACAECLAYERSTANDARD
 70
     0
  0
APPID
  2
AD_DRAW
 70
     0
  0
APPID
  2
ACADM_DIM_EDIT
 70
     0
  0
APPID
  2
AMDT_DM_ADJ
 70
     0
  0
APPID
  2
ACAD_DSTYLE_DIMARC_LENGTH_
 70
     0
  0
APPID
  2
ACAD_DSTYLE_DIMJOGGED_JOGA
 70
     0
  0
APPID
  2
ACAD_EXEMPT_FROM_CAD_STANDARDS
 70
     0
  0
APPID
  2
GENIUS_GENREC_14
 70
     0
  0
APPID
  2
GENIUS_GENODEF_13
 70
     0
  0
APPID
  2
GENIUS_GENOBJ-N-REC_13
 70
     0
  0
APPID
  2
ACCMTRANSPARENCY
 70
     0
  0
APPID
  2
GENIUS_GENDIM_13
 70
     0
  0
APPID
  2
GENIUS_GENDTOL_13
 70
     0
  0
APPID
  2
GENIUS_GE3DTOL_13
 70
     0
  0
APPID
  2
ASURF_PCURVE_APPNAME
 70
     0
  0
APPID
  2
AMG_3D2D_5_0
 70
     0
  0
APPID
  2
GENIUS_GENTRA_14
 70
     0
  0
APPID
  2
GENIUS_GENOBJ-N-HTC_13
 70
     0
  0
APPID
  2
GENIUS_GENHATCH_13
 70
     0
  0
APPID
  2
GRADIENTCOLOR1ACI
 70
     0
  0
APPID
  2
GRADIENTCOLOR2ACI
 70
     0
  0
APPID
  2
GENIUS_GENOLIS_13
 70
     0
  0
APPID
  2
GENIUS_GENOENT_13
 70
     0
  0
APPID
  2
GENIUS_GENOBJ-N-TIT_13
 70
     0
  0
APPID
  2
GENIUS_GENTITLE_13
 70
     0
  0
APPID
  2
GENIUS_GENOREF_13
 70
     0
  0
APPID
  2
GENIUS_GENSCREG_15
 70
     0
  0
APPID
  2
GENIUS_GENOBJ-N-SDF_13
 70
     0
  0
APPID
  2
GENIUS_GENOBJ-N-FIL_13
 70
     0
  0
APPID
  2
ACAD_DSTYLE_DIMINSPECT
 70
     0
  0
APPID
  2
ACADANNOMONITORALERTICONDI
 70
     0
  0
APPID
  2
ACADSTRINGINFO
 70
     0
  0
APPID
  2
RAK
 70
     0
  0
APPID
  2
ACAD_DSTYLE_DIMEXT_LENGTH
 70
     0
  0
APPID
  2
ACAD_DSTYLE_DIMEXT_ENABLED
 70
     0
  0
APPID
  2
DCO15
 70
     0
  0
APPID
  2
ACDBDYNAMICBLOCKTRUENAME2
 70
     0
  0
ENDTAB
  0
TABLE
  2
DIMSTYLE
 70
    27
  0
DIMSTYLE
  2
AM_JIS
 70
     0
  3

  4
"
  5
OPEN30
  6
OPEN30
  7
OPEN30
 40
1.0
 41
2.5
 42
1.0
 43
10.0
 44
1.0
 45
0.0
 46
0.0
 47
0.1
 48
0.1
140
3.5
141
0.0
142
0.0
143
0.0393701
144
1.0
145
0.0
146
0.71
147
1.5
 71
     0
 72
     0
 73
     0
 74
     0
 75
     0
 76
     0
 77
     3
 78
     8
170
     0
171
     2
172
     1
173
     0
174
     0
175
     0
176
   256
177
   256
178
     2
  0
DIMSTYLE
  2
AM_JIS$3
 70
     0
  3

  4
"
  5
OPEN30
  6
OPEN30
  7
OPEN30
 40
1.0
 41
2.5
 42
1.0
 43
10.0
 44
1.0
 45
0.0
 46
0.0
 47
0.1
 48
0.1
140
3.5
141
0.0
142
0.0
143
0.0393701
144
1.0
145
0.0
146
0.71
147
1.5
 71
     0
 72
     0
 73
     0
 74
     1
 75
     0
 76
     0
 77
     3
 78
     8
170
     0
171
     2
172
     0
173
     0
174
     0
175
     0
176
   256
177
   256
178
     2
  0
DIMSTYLE
  2
AM_JIS$4
 70
     0
  3

  4
"
  5
OPEN30
  6
OPEN30
  7
OPEN30
 40
1.0
 41
2.5
 42
1.0
 43
10.0
 44
1.0
 45
0.0
 46
0.0
 47
0.1
 48
0.1
140
3.5
141
0.0
142
0.0
143
0.0393701
144
1.0
145
0.0
146
0.71
147
1.5
 71
     0
 72
     0
 73
     0
 74
     0
 75
     0
 76
     0
 77
     3
 78
     8
170
     0
171
     2
172
     1
173
     0
174
     0
175
     0
176
   256
177
   256
178
     2
  0
DIMSTYLE
  2
AM_JIS$6
 70
     0
  3

  4
"
  5
OPEN30
  6
OPEN30
  7
OPEN30
 40
1.0
 41
2.5
 42
1.0
 43
10.0
 44
1.0
 45
0.0
 46
0.0
 47
0.1
 48
0.1
140
3.5
141
0.0
142
0.0
143
0.0393701
144
1.0
145
0.0
146
0.71
147
1.5
 71
     0
 72
     0
 73
     0
 74
     0
 75
     0
 76
     0
 77
     0
 78
     8
170
     0
171
     2
172
     1
173
     0
174
     0
175
     0
176
   256
177
   256
178
     2
  0
DIMSTYLE
  2
AM_JIS$7
 70
     0
  3

  4
"
  5
OPEN30
  6
OPEN30
  7
OPEN30
 40
1.0
 41
2.5
 42
1.0
 43
10.0
 44
1.0
 45
0.0
 46
0.0
 47
0.1
 48
0.1
140
3.5
141
0.0
142
0.0
143
0.0393701
144
1.0
145
0.0
146
0.71
147
1.5
 71
     0
 72
     0
 73
     0
 74
     0
 75
     0
 76
     0
 77
     3
 78
     8
170
     0
171
     2
172
     1
173
     0
174
     0
175
     0
176
   256
177
   256
178
     2
  0
DIMSTYLE
  2
AM_JIS$SF
 70
     0
  3

  4
"
  5
OPEN30
  6
OPEN30
  7
OPEN30
 40
1.0
 41
2.5
 42
1.0
 43
10.0
 44
1.0
 45
0.0
 46
0.0
 47
0.1
 48
0.1
140
3.5
141
0.0
142
0.0
143
0.0393701
144
1.0
145
0.0
146
0.71
147
1.5
 71
     0
 72
     0
 73
     0
 74
     0
 75
     1
 76
     1
 77
     3
 78
     8
170
     0
171
     2
172
     1
173
     0
174
     0
175
     0
176
   256
177
   256
178
     2
  0
DIMSTYLE
  2
AM_JIS$SH
 70
     0
  3

  4
"
  5
OPEN30
  6
GENAXEH
  7
OPEN30
 40
1.0
 41
2.5
 42
1.0
 43
10.0
 44
1.0
 45
0.0
 46
0.0
 47
0.1
 48
0.1
140
3.5
141
0.0
142
0.0
143
0.0393701
144
2.0
145
0.0
146
0.71
147
1.5
 71
     0
 72
     0
 73
     0
 74
     0
 75
     1
 76
     1
 77
     3
 78
     8
170
     0
171
     2
172
     1
173
     1
174
     0
175
     0
176
   256
177
   256
178
     2
  0
DIMSTYLE
  2
MIHJIS
 70
     0
  3

  4
"
  5
OPEN30
  6
OPEN30
  7
OPEN30
 40
1.0
 41
2.5
 42
1.0
 43
10.0
 44
1.0
 45
0.0
 46
0.0
 47
0.1
 48
0.1
140
3.5
141
0.0
142
0.0
143
0.0393701
144
1.0
145
0.0
146
0.71
147
1.5
 71
     0
 72
     0
 73
     0
 74
     0
 75
     0
 76
     0
 77
     3
 78
     8
170
     0
171
     2
172
     1
173
     0
174
     0
175
     0
176
   256
177
   256
178
     2
  0
DIMSTYLE
  2
MIHJIS$3
 70
     0
  3

  4
"
  5
OPEN30
  6
OPEN30
  7
OPEN30
 40
1.0
 41
2.5
 42
1.0
 43
10.0
 44
1.0
 45
0.0
 46
0.0
 47
0.1
 48
0.1
140
3.5
141
0.0
142
0.0
143
0.0393701
144
1.0
145
0.0
146
0.71
147
1.5
 71
     0
 72
     0
 73
     0
 74
     1
 75
     0
 76
     0
 77
     3
 78
     8
170
     0
171
     2
172
     0
173
     0
174
     0
175
     0
176
   256
177
   256
178
     2
  0
DIMSTYLE
  2
MIHJIS$4
 70
     0
  3

  4
"
  5
OPEN30
  6
OPEN30
  7
OPEN30
 40
1.0
 41
2.5
 42
1.0
 43
10.0
 44
1.0
 45
0.0
 46
0.0
 47
0.1
 48
0.1
140
3.5
141
0.0
142
0.0
143
0.0393701
144
1.0
145
0.0
146
0.71
147
1.5
 71
     0
 72
     0
 73
     0
 74
     0
 75
     0
 76
     0
 77
     3
 78
     8
170
     0
171
     2
172
     1
173
     0
174
     0
175
     0
176
   256
177
   256
178
     2
  0
DIMSTYLE
  2
MIHJIS$6
 70
     0
  3

  4
"
  5
OPEN30
  6
OPEN30
  7
OPEN30
 40
1.0
 41
2.5
 42
1.0
 43
10.0
 44
1.0
 45
0.0
 46
0.0
 47
0.1
 48
0.1
140
3.5
141
0.0
142
0.0
143
0.0393701
144
1.0
145
0.0
146
0.71
147
1.5
 71
     0
 72
     0
 73
     0
 74
     0
 75
     0
 76
     0
 77
     0
 78
     8
170
     0
171
     2
172
     1
173
     0
174
     0
175
     0
176
   256
177
   256
178
     2
  0
DIMSTYLE
  2
MIHJIS$7
 70
     0
  3

  4
"
  5
OPEN30
  6
OPEN30
  7
OPEN30
 40
1.0
 41
2.5
 42
1.0
 43
10.0
 44
1.0
 45
0.0
 46
0.0
 47
0.1
 48
0.1
140
3.5
141
0.0
142
0.0
143
0.0393701
144
1.0
145
0.0
146
0.71
147
1.5
 71
     0
 72
     0
 73
     0
 74
     0
 75
     0
 76
     0
 77
     3
 78
     8
170
     0
171
     2
172
     1
173
     0
174
     0
175
     0
176
   256
177
   256
178
     2
  0
DIMSTYLE
  2
MIHJIS$SF
 70
     0
  3

  4
"
  5
OPEN30
  6
OPEN30
  7
OPEN30
 40
1.0
 41
2.5
 42
1.0
 43
10.0
 44
1.0
 45
0.0
 46
0.0
 47
0.1
 48
0.1
140
3.5
141
0.0
142
0.0
143
0.0393701
144
1.0
145
0.0
146
0.71
147
1.5
 71
     0
 72
     0
 73
     0
 74
     0
 75
     1
 76
     1
 77
     3
 78
     8
170
     0
171
     2
172
     1
173
     0
174
     0
175
     0
176
   256
177
   256
178
     2
  0
DIMSTYLE
  2
MIHJIS$SH
 70
     0
  3

  4
"
  5
OPEN30
  6
GENAXEH
  7
OPEN30
 40
1.0
 41
2.5
 42
1.0
 43
10.0
 44
1.0
 45
0.0
 46
0.0
 47
0.1
 48
0.1
140
3.5
141
0.0
142
0.0
143
0.0393701
144
2.0
145
0.0
146
0.71
147
1.5
 71
     0
 72
     0
 73
     0
 74
     0
 75
     1
 76
     1
 77
     3
 78
     8
170
     0
171
     2
172
     1
173
     1
174
     0
175
     0
176
   256
177
   256
178
     2
  0
DIMSTYLE
  2
MHIJIS
 70
     0
  3

  4
"
  5
OPEN30
  6

  7

 40
1.0
 41
3.0
 42
0.0
 43
12.0
 44
2.0
 45
0.0
 46
0.0
 47
0.1
 48
0.1
140
4.0
141
0.0
142
0.0
143
0.0393701
144
1.0
145
0.0
146
0.71
147
1.0
 71
     0
 72
     0
 73
     0
 74
     0
 75
     0
 76
     0
 77
     3
 78
     8
170
     0
171
     2
172
     1
173
     0
174
     0
175
     0
176
     3
177
     3
178
     3
  0
DIMSTYLE
  2
MHIJIS$3
 70
     0
  3

  4
"
  5
OPEN30
  6

  7

 40
1.0
 41
3.0
 42
0.0
 43
12.0
 44
2.0
 45
0.0
 46
0.0
 47
0.1
 48
0.1
140
4.0
141
0.0
142
0.0
143
0.0393701
144
1.0
145
0.0
146
0.71
147
1.0
 71
     0
 72
     0
 73
     0
 74
     0
 75
     0
 76
     0
 77
     3
 78
     8
170
     0
171
     2
172
     0
173
     0
174
     0
175
     0
176
     3
177
     3
178
     3
  0
DIMSTYLE
  2
MHIJIS$4
 70
     0
  3

  4
"
  5
OPEN30
  6

  7

 40
1.0
 41
3.0
 42
0.0
 43
12.0
 44
2.0
 45
0.0
 46
0.0
 47
0.1
 48
0.1
140
4.0
141
0.0
142
0.0
143
0.0393701
144
1.0
145
0.0
146
0.71
147
1.0
 71
     0
 72
     0
 73
     0
 74
     0
 75
     0
 76
     0
 77
     3
 78
     8
170
     0
171
     2
172
     0
173
     0
174
     0
175
     0
176
     3
177
     3
178
     3
  0
DIMSTYLE
  2
MHIJIS$6
 70
     0
  3

  4
"
  5
OPEN30
  6

  7

 40
1.0
 41
3.0
 42
0.0
 43
12.0
 44
2.0
 45
0.0
 46
0.0
 47
0.1
 48
0.1
140
4.0
141
0.0
142
0.0
143
0.0393701
144
1.0
145
0.0
146
0.71
147
1.0
 71
     0
 72
     0
 73
     0
 74
     0
 75
     0
 76
     0
 77
     0
 78
     8
170
     0
171
     2
172
     1
173
     0
174
     0
175
     0
176
     3
177
     3
178
     3
  0
DIMSTYLE
  2
MHIJIS$7
 70
     0
  3

  4
"
  5
OPEN30
  6

  7

 40
1.0
 41
3.0
 42
0.0
 43
12.0
 44
2.0
 45
0.0
 46
0.0
 47
0.1
 48
0.1
140
4.0
141
0.0
142
0.0
143
0.0393701
144
1.0
145
0.0
146
0.71
147
1.0
 71
     0
 72
     0
 73
     0
 74
     0
 75
     0
 76
     0
 77
     3
 78
     8
170
     0
171
     2
172
     1
173
     0
174
     0
175
     0
176
     3
177
     3
178
     3
  0
DIMSTYLE
  2
MHIJIS$SF
 70
     0
  3

  4
"
  5
OPEN30
  6

  7

 40
1.0
 41
3.0
 42
0.0
 43
12.0
 44
2.0
 45
0.0
 46
0.0
 47
0.1
 48
0.1
140
4.0
141
0.0
142
0.0
143
0.0393701
144
1.0
145
0.0
146
0.71
147
1.0
 71
     0
 72
     0
 73
     0
 74
     0
 75
     1
 76
     1
 77
     3
 78
     8
170
     0
171
     2
172
     1
173
     0
174
     0
175
     0
176
     3
177
     3
178
     3
  0
DIMSTYLE
  2
MHIJIS$SH
 70
     0
  3

  4
"
  5

  6
GENAXEH
  7
OPEN30
 40
1.0
 41
3.0
 42
0.0
 43
12.0
 44
2.0
 45
0.0
 46
0.0
 47
0.1
 48
0.1
140
4.0
141
0.0
142
0.0
143
0.0393701
144
2.0
145
0.0
146
0.71
147
1.0
 71
     0
 72
     0
 73
     0
 74
     0
 75
     1
 76
     1
 77
     3
 78
     8
170
     0
171
     2
172
     1
173
     1
174
     0
175
     0
176
     3
177
     3
178
     3
  0
DIMSTYLE
  2
MHIJIS$2
 70
     0
  3

  4
"
  5
OPEN30
  6

  7

 40
1.0
 41
3.0
 42
0.0
 43
12.0
 44
2.0
 45
0.0
 46
0.0
 47
0.1
 48
0.1
140
4.0
141
0.0
142
0.0
143
0.0393701
144
1.0
145
0.0
146
0.71
147
1.0
 71
     0
 72
     0
 73
     0
 74
     0
 75
     0
 76
     0
 77
     3
 78
     8
170
     0
171
     2
172
     1
173
     0
174
     0
175
     0
176
     3
177
     3
178
     3
  0
DIMSTYLE
  2
MHIJIS$0
 70
     0
  3

  4
"
  5
OPEN30
  6

  7

 40
1.0
 41
3.0
 42
0.0
 43
12.0
 44
2.0
 45
0.0
 46
0.0
 47
0.1
 48
0.1
140
4.0
141
0.0
142
0.0
143
0.0393701
144
1.0
145
0.0
146
0.71
147
1.0
 71
     0
 72
     0
 73
     0
 74
     0
 75
     0
 76
     0
 77
     3
 78
     8
170
     0
171
     2
172
     1
173
     0
174
     0
175
     0
176
     3
177
     3
178
     3
  0
ENDTAB
  0
ENDSEC
  0
SECTION
  2
BLOCKS
  0
BLOCK
  8
0
  2
$MODEL_SPACE
 70
     0
 10
0.0
 20
0.0
 30
0.0
  3
$MODEL_SPACE
  1

  0
ENDBLK
  5
21
  8
0
  0
BLOCK
 67
     1
  8
0
  2
$PAPER_SPACE
 70
     0
 10
0.0
 20
0.0
 30
0.0
  3
$PAPER_SPACE
  1

  0
ENDBLK
  5
D5
 67
     1
  8
0
  0
BLOCK
  8
0
  2
GENAXEH
 70
     0
 10
0.0
 20
0.0
 30
0.0
  3
GENAXEH
  1

  0
LINE
  5
EB20
  8
0
 10
-1.0
 20
0.0
 30
0.0
 11
1.0
 21
0.0
 31
0.0
  0
ENDBLK
  5
EB21
  8
0
  0
BLOCK
  8
0
  2
_OPEN30
 70
     0
 10
0.0
 20
0.0
 30
0.0
  3
_OPEN30
  1

  0
LINE
  5
EAF1
  8
0
  6
BYBLOCK
 62
     0
 10
-1.0
 20
0.26794919
 30
0.0
 11
0.0
 21
0.0
 31
0.0
  0
LINE
  5
EAF2
  8
0
  6
BYBLOCK
 62
     0
 10
0.0
 20
0.0
 30
0.0
 11
-1.0
 21
-0.26794919
 31
0.0
  0
LINE
  5
EAF3
  8
0
  6
BYBLOCK
 62
     0
 10
0.0
 20
0.0
 30
0.0
 11
-1.0
 21
0.0
 31
0.0
  0
ENDBLK
  5
EAF4
  8
0
  0
BLOCK
  8
0
  2
*U33
 70
     1
 10
0.0
 20
0.0
 30
0.0
  3
*U33
  1

  0
TEXT
  5
F950
  8
0
 62
     3
 10
1981.2276009356689883
 20
2560.6454254957429839
 30
0.0
 40
40.0
  1
920
 41
0.7
  0
ENDBLK
  5
F952
  8
0
  0
BLOCK
  8
0
  2
*U34
 70
     1
 10
0.0
 20
0.0
 30
0.0
  3
*U34
  1

  0
TEXT
  5
F954
  8
0
 62
     3
 10
2667.2334367601802114
 20
2197.1454254957147896
 30
0.0
 40
40.0
  1
305
 50
90.0
 41
0.7
  0
ENDBLK
  5
F956
  8
0
  0
BLOCK
  8
0
  2
*U35
 70
     1
 10
0.0
 20
0.0
 30
0.0
  3
*U35
  1

  0
TEXT
  5
F958
  8
0
 62
     3
 10
3326.5836554243110186
 20
2560.6454254957429839
 30
0.0
 40
40.0
  1
3
 41
0.7
  0
ENDBLK
  5
F95A
  8
0
  0
BLOCK
  8
0
  2
*U36
 70
     1
 10
0.0
 20
0.0
 30
0.0
  3
*U36
  1

  0
TEXT
  5
F95C
  8
0
 62
     3
 10
3107.4343973073450798
 20
2560.6454254957429839
 30
0.0
 40
40.0
  1
220
 41
0.7
  0
ENDBLK
  5
F95E
  8
0
  0
BLOCK
  8
0
  2
*U37
 70
     1
 10
0.0
 20
0.0
 30
0.0
  3
*U37
  1

  0
TEXT
  5
F960
  8
0
 62
     3
 10
4915.5548705600403991
 20
2640.6454254957429839
 30
0.0
 40
40.0
  1
176
 41
0.7
  0
ENDBLK
  5
F962
  8
0
  0
BLOCK
  8
0
  2
*U38
 70
     1
 10
0.0
 20
0.0
 30
0.0
  3
*U38
  1

  0
TEXT
  5
F964
  8
0
 62
     3
 10
4521.4773782126076185
 20
2640.6454254957429839
 30
0.0
 40
40.0
  1
568
 41
0.7
  0
ENDBLK
  5
F966
  8
0
  0
BLOCK
  8
0
  2
*U39
 70
     1
 10
0.0
 20
0.0
 30
0.0
  3
*U39
  1

  0
TEXT
  5
F968
  8
0
 62
     3
 10
4751.467573135108978
 20
2560.6454254957429839
 30
0.0
 40
40.0
  1
460
 41
0.7
  0
ENDBLK
  5
F96A
  8
0
  0
BLOCK
  8
0
  2
*U40
 70
     1
 10
0.0
 20
0.0
 30
0.0
  3
*U40
  1

  0
TEXT
  5
F96C
  8
0
 62
     3
 10
4521.4773782126076185
 20
2720.6454254957429839
 30
0.0
 40
40.0
  1
630
 41
0.7
  0
ENDBLK
  5
F96E
  8
0
  0
BLOCK
  8
0
  2
*U41
 70
     1
 10
0.0
 20
0.0
 30
0.0
  3
*U41
  1

  0
TEXT
  5
F970
  8
0
 62
     3
 10
4911.6342398017759479
 20
2720.6454254957429839
 30
0.0
 40
40.0
  1
145
 41
0.7
  0
ENDBLK
  5
F972
  8
0
  0
BLOCK
  8
0
  2
*U42
 70
     1
 10
0.0
 20
0.0
 30
0.0
  3
*U42
  1

  0
TEXT
  5
F974
  8
0
 62
     3
 10
5057.4577680576094281
 20
2800.6454254957429839
 30
0.0
 40
40.0
  1
118.5
 41
0.7
  0
ENDBLK
  5
F976
  8
0
  0
BLOCK
  8
0
  2
*U43
 70
     1
 10
0.0
 20
0.0
 30
0.0
  3
*U43
  1

  0
TEXT
  5
F978
  8
0
 62
     3
 10
4521.4773782131096596
 20
2800.6454254957429839
 30
0.0
 40
40.0
  1
683
 41
0.7
  0
ENDBLK
  5
F97A
  8
0
  0
BLOCK
  8
0
  2
*U44
 70
     1
 10
0.0
 20
0.0
 30
0.0
  3
*U44
  1

  0
TEXT
  5
F97C
  8
0
 62
     3
 10
4130.3225945119684184
 20
2640.6454254957429839
 30
0.0
 40
40.0
  1
176
 41
0.7
  0
ENDBLK
  5
F97E
  8
0
  0
BLOCK
  8
0
  2
*U45
 70
     1
 10
0.0
 20
0.0
 30
0.0
  3
*U45
  1

  0
TEXT
  5
F980
  8
0
 62
     3
 10
4291.48522745903756
 20
2560.6454254957429839
 30
0.0
 40
40.0
  1
460
 41
0.7
  0
ENDBLK
  5
F982
  8
0
  0
BLOCK
  8
0
  2
*U46
 70
     1
 10
0.0
 20
0.0
 30
0.0
  3
*U46
  1

  0
TEXT
  5
F984
  8
0
 62
     3
 10
4136.6518941257054394
 20
2720.6454254957429839
 30
0.0
 40
40.0
  1
145
 41
0.7
  0
ENDBLK
  5
F986
  8
0
  0
BLOCK
  8
0
  2
*U47
 70
     1
 10
0.0
 20
0.0
 30
0.0
  3
*U47
  1

  0
TEXT
  5
F988
  8
0
 62
     3
 10
3956.1597433721349262
 20
2800.6454254957429839
 30
0.0
 40
40.0
  1
118.5
 41
0.7
  0
ENDBLK
  5
F98A
  8
0
  0
BLOCK
  8
0
  2
*U48
 70
     1
 10
0.0
 20
0.0
 30
0.0
  3
*U48
  1

  0
TEXT
  5
F98C
  8
0
 62
     3
 10
3907.4773782126080732
 20
1926.6454254957429839
 30
0.0
 40
40.0
  1
76.6
 50
90.0
 41
0.7
  0
ENDBLK
  5
F98E
  8
0
  0
BLOCK
  8
0
  2
*U49
 70
     1
 10
0.0
 20
0.0
 30
0.0
  3
*U49
  1

  0
TEXT
  5
F990
  8
0
 62
     3
 10
5207.4773782126076185
 20
1923.9787588290769236
 30
0.0
 40
40.0
  1
56.4
 50
90.0
 41
0.7
  0
ENDBLK
  5
F992
  8
0
  0
BLOCK
  8
0
  2
*U50
 70
     1
 10
0.0
 20
0.0
 30
0.0
  3
*U50
  1

  0
TEXT
  5
F994
  8
0
 62
     3
 10
5287.4773782126076185
 20
2455.6454254957429839
 30
0.0
 40
40.0
  1
10.3
 50
90.0
 41
0.7
  0
ENDBLK
  5
F996
  8
0
  0
BLOCK
  8
0
  2
*U51
 70
     1
 10
0.0
 20
0.0
 30
0.0
  3
*U51
  1

  0
TEXT
  5
F998
  8
0
 62
     3
 10
5287.4773782126076185
 20
2180.6974209777431497
 30
0.0
 40
40.0
  1
277.3
 50
90.0
 41
0.7
  0
ENDBLK
  5
F99A
  8
0
  0
BLOCK
  8
0
  2
*U52
 70
     1
 10
0.0
 20
0.0
 30
0.0
  3
*U52
  1

  0
TEXT
  5
F99C
  8
0
 62
     3
 10
5287.4773782126076185
 20
1929.3120921624099537
 30
0.0
 40
40.0
  1
17.4
 50
90.0
 41
0.7
  0
ENDBLK
  5
F99E
  8
0
  0
BLOCK
  8
0
  2
*U53
 70
     1
 10
0.0
 20
0.0
 30
0.0
  3
*U53
  1

  0
TEXT
  5
F9A0
  8
0
 62
     3
 10
3907.4773782126089827
 20
2455.6454254957438934
 30
0.0
 40
40.0
  1
48.6
 50
90.0
 41
0.7
  0
ENDBLK
  5
F9A2
  8
0
  0
BLOCK
  8
0
  2
*U54
 70
     1
 10
0.0
 20
0.0
 30
0.0
  3
*U54
  1

  0
TEXT
  5
F9A4
  8
0
 62
     3
 10
3827.4773782126089827
 20
2425.6454254957438934
 30
0.0
 40
40.0
  1
88.6
 50
90.0
 41
0.7
  0
ENDBLK
  5
F9A6
  8
0
  0
BLOCK
  8
0
  2
*U55
 70
     1
 10
0.0
 20
0.0
 30
0.0
  3
*U55
  1

  0
TEXT
  5
F9AF
  8
0
 62
     3
 10
2666.5755000658978133
 20
3184.8663364134281437
 30
0.0
 40
40.0
  1
13.2
 50
90.0
 41
0.7
  0
ENDBLK
  5
F9B1
  8
0
  0
ENDSEC
  0
SECTION
  2
ENTITIES
  0
LINE
  5
B70C
  8
DETAIL
  6
CONTINUOUS
 62
     5
 10
-443.8055631289998928
 20
-3.5614278550092422
 30
0.0
 11
-443.7379759140002875
 21
-3.44944921600927
 31
0.0
  0
LINE
  5
B70D
  8
DETAIL
  6
CONTINUOUS
 62
     5
 10
-443.9504214479994175
 20
-4.1365167080084566
 30
0.0
 11
-443.9385856609995926
 21
-4.018347947008805
 31
0.0
  0
LINE
  5
B70F
  8
DETAIL
  6
CONTINUOUS
 62
     5
 10
-459.9886530899976265
 20
-107.7737334410093979
 30
0.0
 11
-459.980515028246316
 21
-107.6637925002413994
 31
0.0
  0
LINE
  5
B711
  8
DETAIL
  6
CONTINUOUS
 62
     5
 10
-443.9602194879998933
 20
-4.277653522009131
 30
0.0
 11
-443.9504214479994175
 21
-4.1365167080084566
 31
0.0
  0
LINE
  5
B714
  8
DETAIL
  6
CONTINUOUS
 62
     5
 10
-443.9682828559998029
 20
-4.447534091009401
 30
0.0
 11
-443.9602194879998933
 21
-4.277653522009131
 31
0.0
  0
LINE
  5
B717
  8
DETAIL
  6
CONTINUOUS
 62
     5
 10
-460.0921067009958279
 20
-188.8842772470098055
 30
0.0
 11
-460.0922088609959246
 21
-188.8875709400089988
 31
0.0
  0
LINE
  5
B718
  8
DETAIL
  6
CONTINUOUS
 62
     5
 10
-443.9743118069999923
 20
-4.6489202020093208
 30
0.0
 11
-443.9682828559998029
 21
-4.447534091009401
 31
0.0
  0
LINE
  5
B71A
  8
DETAIL
  6
CONTINUOUS
 62
     5
 10
-459.9909305759982772
 20
-107.8664452750089993
 30
0.0
 11
-459.9886530899976265
 21
-107.7737334410093979
 31
0.0
  0
LINE
  5
B725
  8
DETAIL
  6
CONTINUOUS
 62
     5
 10
-443.9776976789999026
 20
-4.8788603210086867
 30
0.0
 11
-443.9743118069999923
 21
-4.6489202020093208
 31
0.0
  0
LINE
  5
B740
  8
DETAIL
  6
CONTINUOUS
 62
     5
 10
-460.0129359939991787
 20
-32.8759298360091634
 30
0.0
 11
-460.0207325469991133
 21
-66.8645598800094234
 31
0.0
  0
LINE
  5
B741
  8
DETAIL
  6
CONTINUOUS
 62
     5
 10
-443.9782444049560013
 20
-7.519009777755854
 30
0.0
 11
-443.9776976789999026
 21
-4.8788603210086867
 31
0.0
  0
LINE
  5
B743
  8
DETAIL
  6
CONTINUOUS
 62
     5
 10
-460.0207325789987749
 20
-66.8645606980098819
 30
0.0
 11
-460.0207325789979222
 21
-98.4996562920096039
 31
0.0
  0
LINE
  5
B744
  8
DETAIL
  6
CONTINUOUS
 62
     5
 10
-459.9911984839973229
 20
-157.1474242710092142
 30
0.0
 11
-459.9909305759982772
 21
-107.8664452750089993
 31
0.0
  0
LINE
  5
B749
  8
DETAIL
  6
CONTINUOUS
 62
     5
 10
-459.9798563289978119
 20
-107.6580211058043943
 30
0.0
 11
-459.9798563289978119
 21
-98.9042606205775883
 31
0.0
  0
LINE
  5
B74B
  8
DETAIL
  6
CONTINUOUS
 62
     5
 10
-459.9798328879959968
 20
-181.4389606120093958
 30
0.0
 11
-459.9798559016317085
 21
-157.5903583704885023
 31
0.0
  0
LINE
  5
B74F
  8
DETAIL
  6
CONTINUOUS
 62
     5
 10
-454.999999999998181
 20
-105.5162731820092006
 30
0.0
 11
-454.999999999998181
 21
-100.5000000000090949
 31
0.0
  0
LINE
  5
B750
  8
DETAIL
  6
CONTINUOUS
 62
     5
 10
-454.9999999999963052
 20
-191.2780019430092011
 30
0.0
 11
-454.9999999999953957
 21
-210.5340376240091871
 31
0.0
  0
LINE
  5
B755
  8
DETAIL
  6
CONTINUOUS
 62
     5
 10
-459.9815272429959236
 20
-211.2698181080085931
 30
0.0
 11
-460.0083348049956271
 21
-202.7640557790091123
 31
0.0
  0
LINE
  5
B756
  8
DETAIL
  6
CONTINUOUS
 62
     5
 10
-460.0083348049956271
 20
-202.7640557790091123
 30
0.0
 11
-460.0217265579958053
 21
-199.235274278009399
 31
0.0
  0
LINE
  5
B760
  8
DETAIL
  6
CONTINUOUS
 62
     5
 10
-460.0217265579958053
 20
-199.235274278009399
 30
0.0
 11
-460.030614150996314
 21
-197.2958238220089129
 31
0.0
  0
LINE
  5
B761
  8
DETAIL
  6
CONTINUOUS
 62
     5
 10
-460.030614150996314
 20
-197.2958238220089129
 30
0.0
 11
-460.0415695989958067
 21
-195.2580612600085885
 31
0.0
  0
LINE
  5
B762
  8
DETAIL
  6
CONTINUOUS
 62
     5
 10
-460.0415695989958067
 20
-195.2580612600085885
 30
0.0
 11
-460.0551481709961763
 21
-193.1389041990096018
 31
0.0
  0
LINE
  5
B763
  8
DETAIL
  6
CONTINUOUS
 62
     5
 10
-460.0551481709961763
 20
-193.1389041990096018
 30
0.0
 11
-460.0722035279958959
 21
-190.9557117290096073
 31
0.0
  0
LINE
  5
B764
  8
DETAIL
  6
CONTINUOUS
 62
     5
 10
-460.0722035279958959
 20
-190.9557117290096073
 30
0.0
 11
-460.0922087639964957
 21
-188.8875705000091045
 31
0.0
  0
LINE
  5
B765
  8
DETAIL
  6
CONTINUOUS
 62
     5
 10
-459.9801249762085149
 20
-211.3769574561219997
 30
0.0
 11
-459.9815272429959236
 21
-211.2698181080085931
 31
0.0
  0
LINE
  5
B768
  8
DETAIL
  6
CONTINUOUS
 62
     5
 10
-459.8431261429968231
 20
-163.0971084990096074
 30
0.0
 11
-459.9908530779965758
 21
-157.1474503820099926
 31
0.0
  0
LINE
  5
B76B
  8
DETAIL
  6
CONTINUOUS
 62
     5
 10
-459.9801249762085149
 20
-211.3769574561401896
 30
0.0
 11
-459.9367137929958176
 21
-213.0298972500094976
 31
0.0
  0
LINE
  5
B783
  8
DETAIL
  6
CONTINUOUS
 62
     5
 10
-443.5579447839999716
 20
-3.2477521670089109
 30
0.0
 11
-443.4489320239998733
 21
-3.165235206009128
 31
0.0
  0
LINE
  5
B784
  8
DETAIL
  6
CONTINUOUS
 62
     5
 10
-459.3564253629983796
 20
-106.0612835450092035
 30
0.0
 11
-459.1303489339979933
 21
-105.8644801070094985
 31
0.0
  0
LINE
  5
B785
  8
DETAIL
  6
CONTINUOUS
 62
     5
 10
-459.3567767489965945
 20
-187.4983870440092062
 30
0.0
 11
-459.0262549029966976
 21
-187.1916692930089994
 31
0.0
  0
LINE
  5
B786
  8
DETAIL
  6
CONTINUOUS
 62
     5
 10
-443.6582461320003858
 20
-3.347249527008898
 30
0.0
 11
-443.5579447839999716
 21
-3.2477521670089109
 31
0.0
  0
LINE
  5
B787
  8
DETAIL
  6
CONTINUOUS
 62
     5
 10
-459.5494263649979985
 20
-106.2862499600087034
 30
0.0
 11
-459.3564253629983796
 21
-106.0612835450092035
 31
0.0
  0
LINE
  5
B788
  8
DETAIL
  6
CONTINUOUS
 62
     5
 10
-459.6357938289964977
 20
-187.8456689500088999
 30
0.0
 11
-459.3567767489965945
 21
-187.4983870440092062
 31
0.0
  0
LINE
  5
B789
  8
DETAIL
  6
CONTINUOUS
 62
     5
 10
-443.7379759140002875
 20
-3.44944921600927
 30
0.0
 11
-443.6582461320003858
 21
-3.347249527008898
 31
0.0
  0
LINE
  5
B78A
  8
DETAIL
  6
CONTINUOUS
 62
     5
 10
-459.7063055699982215
 20
-106.5345068550094965
 30
0.0
 11
-459.5494263649979985
 21
-106.2862499600087034
 31
0.0
  0
LINE
  5
B78B
  8
DETAIL
  6
CONTINUOUS
 62
     5
 10
-459.858363124996572
 20
-188.2244191270092131
 30
0.0
 11
-459.6357938289964977
 21
-187.8456689500088999
 31
0.0
  0
LINE
  5
B78C
  8
DETAIL
  6
CONTINUOUS
 62
     5
 10
-443.8593059180001887
 20
-3.6800261390089868
 30
0.0
 11
-443.8055631289998928
 21
-3.5614278550092422
 31
0.0
  0
LINE
  5
B78D
  8
DETAIL
  6
CONTINUOUS
 62
     5
 10
-459.8250479059979057
 20
-106.7997216270086938
 30
0.0
 11
-459.7063055699982215
 21
-106.5345068550094965
 31
0.0
  0
LINE
  5
B78E
  8
DETAIL
  6
CONTINUOUS
 62
     5
 10
-460.0212495559961781
 20
-188.6246384850091999
 30
0.0
 11
-459.858363124996572
 21
-188.2244191270092131
 31
0.0
  0
LINE
  5
B78F
  8
DETAIL
  6
CONTINUOUS
 62
     5
 10
-324.0870727509999938
 20
-1.871390677006274
 30
0.0
 11
-323.7156821710004806
 21
-0.9429142270064403
 31
0.0
  0
LINE
  5
B798
  8
DETAIL
  6
CONTINUOUS
 62
     5
 10
-443.8976822120002907
 20
-3.79799948200889
 30
0.0
 11
-443.8593059180001887
 21
-3.6800261390089868
 31
0.0
  0
LINE
  5
B7A1
  8
DETAIL
  6
CONTINUOUS
 62
     5
 10
-459.9047790619978855
 20
-107.0773255490094016
 30
0.0
 11
-459.8250479059979057
 21
-106.7997216270086938
 31
0.0
  0
LINE
  5
B7A2
  8
DETAIL
  6
CONTINUOUS
 62
     5
 10
-460.0908127209959275
 20
-188.8753594560093916
 30
0.0
 11
-460.0212495559961781
 21
-188.6246384850091999
 31
0.0
  0
LINE
  5
B7A3
  8
DETAIL
  6
CONTINUOUS
 62
     5
 10
-443.9226310780003928
 20
-3.9103289130089252
 30
0.0
 11
-443.8976822120002907
 21
-3.79799948200889
 31
0.0
  0
LINE
  5
B7A4
  8
DETAIL
  6
CONTINUOUS
 62
     5
 10
-459.9352604189979843
 20
-107.2674236510091959
 30
0.0
 11
-459.9047790619978855
 21
-107.0773255490094016
 31
0.0
  0
LINE
  5
B7A5
  8
DETAIL
  6
CONTINUOUS
 62
     5
 10
-443.9385856609995926
 20
-4.018347947008805
 30
0.0
 11
-443.9226310780003928
 21
-3.9103289130089252
 31
0.0
  0
LINE
  5
B7A6
  8
DETAIL
  6
CONTINUOUS
 62
     5
 10
-460.0921056129964199
 20
-188.8842774750092133
 30
0.0
 11
-460.0908131819959976
 21
-188.8753614490096879
 31
0.0
  0
LINE
  5
B7A7
  8
DETAIL
  6
CONTINUOUS
 62
     5
 10
-459.9805150282472255
 20
-107.6637925002532938
 30
0.0
 11
-459.9344251319981254
 21
-107.2599618120092941
 31
0.0
  0
LINE
  5
B7E2
  8
DETAIL
  6
CONTINUOUS
 62
     5
 10
-424.9999999179989914
 20
-38.000000006008122
 30
0.0
 11
-424.9999999179999008
 21
-3.929646477008645
 31
0.0
  0
LINE
  5
B7E3
  8
DETAIL
  6
CONTINUOUS
 62
     5
 10
-409.9999999999981242
 20
-100.5000000000081997
 30
0.0
 11
-409.9999999999981242
 21
-105.5162731810078043
 31
0.0
  0
LINE
  5
B7F4
  8
DETAIL
  6
CONTINUOUS
 62
     5
 10
-376.3999999999978172
 20
-100.5000000000072049
 30
0.0
 11
-376.3999999999978172
 21
-105.5162731820072963
 31
0.0
  0
LINE
  5
B7F5
  8
DETAIL
  6
CONTINUOUS
 62
     5
 10
-364.9999999180000145
 20
-4.2650060050073071
 30
0.0
 11
-364.9999999179989914
 21
-38.0000000000072831
 31
0.0
  0
LINE
  5
B7F6
  8
DETAIL
  6
CONTINUOUS
 62
     5
 10
-358.3871207349984047
 20
-76.5749068500072099
 30
0.0
 11
-358.3871207349994279
 21
-58.9857765970073089
 31
0.0
  0
LINE
  5
B7F7
  8
DETAIL
  6
CONTINUOUS
 62
     5
 10
-358.1524948629985943
 20
-59.7868042370073383
 30
0.0
 11
-358.1524948629985943
 21
-76.4794941410073079
 31
0.0
  0
LINE
  5
B7F8
  8
DETAIL
  6
CONTINUOUS
 62
     5
 10
-355.3605956429992148
 20
-76.4394221110069338
 30
0.0
 11
-355.3605956429992148
 21
-75.2398333210076089
 31
0.0
  0
LINE
  5
B7F9
  8
DETAIL
  6
CONTINUOUS
 62
     5
 10
-348.4391803359986284
 20
-76.4394221110069338
 30
0.0
 11
-348.4391803359986284
 21
-75.2398333210066852
 31
0.0
  0
LINE
  5
B7FA
  8
DETAIL
  6
CONTINUOUS
 62
     5
 10
-345.6472811159993057
 20
-59.786804237006443
 30
0.0
 11
-345.6472811159982825
 21
-76.4794941410073079
 31
0.0
  0
LINE
  5
B7FB
  8
DETAIL
  6
CONTINUOUS
 62
     5
 10
-345.4126552429988806
 20
-58.9857765970064065
 30
0.0
 11
-345.4126552429988806
 21
-76.5749068500063004
 31
0.0
  0
LINE
  5
B7FC
  8
DETAIL
  6
CONTINUOUS
 62
     5
 10
-341.5
 20
-4.2650060050073071
 30
0.0
 11
-341.5
 21
-0.500000000007276
 31
0.0
  0
LINE
  5
B828
  8
DETAIL
  6
CONTINUOUS
 62
     5
 10
-459.968790215995682
 20
-181.6952695740091883
 30
0.0
 11
-459.9798255669965101
 21
-181.438961028008606
 31
0.0
  0
LINE
  5
B829
  8
DETAIL
  6
CONTINUOUS
 62
     5
 10
-459.3843237049968025
 20
-169.1931312040086937
 30
0.0
 11
-459.8431261429968231
 21
-163.0971084990096074
 31
0.0
  0
LINE
  5
B833
  8
DETAIL
  6
CONTINUOUS
 62
     5
 10
-458.6137141229964982
 20
-175.2712437090085018
 30
0.0
 11
-459.3843237049968025
 21
-169.1931312040086937
 31
0.0
  0
LINE
  5
B834
  8
DETAIL
  6
CONTINUOUS
 62
     5
 10
-459.9061391089961717
 20
-182.0973851670086958
 30
0.0
 11
-459.968790215995682
 21
-181.6952695740091883
 31
0.0
  0
LINE
  5
B835
  8
DETAIL
  6
CONTINUOUS
 62
     5
 10
-460.3577510900004199
 20
-13.5674875260092396
 30
0.0
 11
-460.0723380769995856
 21
-15.2791397820092207
 31
0.0
  0
LINE
  5
B836
  8
DETAIL
  6
CONTINUOUS
 62
     5
 10
-457.5317586409964861
 20
-181.3124014670092947
 30
0.0
 11
-458.6137141229964982
 21
-175.2712437090085018
 31
0.0
  0
LINE
  5
B837
  8
DETAIL
  6
CONTINUOUS
 62
     5
 10
-456.1404019229967162
 20
-187.2971789370093916
 30
0.0
 11
-457.5317586409964861
 21
-181.3124014670092947
 31
0.0
  0
LINE
  5
B860
  8
DETAIL
  6
CONTINUOUS
 62
     5
 10
-443.304939884000305
 20
-3.086583126008918
 30
0.0
 11
-443.1489834720005092
 21
-3.032111590009662
 31
0.0
  0
LINE
  5
B861
  8
DETAIL
  6
CONTINUOUS
 62
     5
 10
-458.8746503339979768
 20
-105.7001292200093019
 30
0.0
 11
-458.5927191159980794
 21
-105.5734900070091982
 31
0.0
  0
LINE
  5
B862
  8
DETAIL
  6
CONTINUOUS
 62
     5
 10
-443.4489320239998733
 20
-3.165235206009128
 30
0.0
 11
-443.304939884000305
 21
-3.086583126008918
 31
0.0
  0
LINE
  5
B863
  8
DETAIL
  6
CONTINUOUS
 62
     5
 10
-459.752739615995722
 20
-210.5076392830087002
 30
0.0
 11
-459.684118497995712
 21
-210.4694941980087037
 31
0.0
  0
LINE
  5
B864
  8
DETAIL
  6
CONTINUOUS
 62
     5
 10
-459.1303489339979933
 20
-105.8644801070094985
 30
0.0
 11
-458.8746503339979768
 21
-105.7001292200093019
 31
0.0
  0
LINE
  5
B88F
  8
DETAIL
  6
CONTINUOUS
 62
     5
 10
-459.0262549029966976
 20
-187.1916692930089994
 30
0.0
 11
-458.6507427059959241
 21
-186.9336257340092118
 31
0.0
  0
LINE
  5
B894
  8
DETAIL
  6
CONTINUOUS
 62
     5
 10
-146.0870727509999938
 20
-1.8713906770026361
 30
0.0
 11
-145.715682171000509
 21
-0.9429142270028023
 31
0.0
  0
LINE
  5
B8F4
  8
DETAIL
  6
CONTINUOUS
 62
     5
 10
-41.6871207349986435
 20
-76.5749068500008434
 30
0.0
 11
-41.6871207349986435
 21
-58.9857765970009424
 31
0.0
  0
LINE
  5
B8F5
  8
DETAIL
  6
CONTINUOUS
 62
     5
 10
-41.4524948629987193
 20
-59.7868042370009718
 30
0.0
 11
-41.4524948629987193
 21
-76.4794941410009415
 31
0.0
  0
LINE
  5
B8F6
  8
DETAIL
  6
CONTINUOUS
 62
     5
 10
-38.6605956429984872
 20
-76.4394221110005674
 30
0.0
 11
-38.6605956429984872
 21
-75.2398333210003329
 31
0.0
  0
LINE
  5
B904
  8
DETAIL
  6
CONTINUOUS
 62
     5
 10
-31.7391803359987499
 20
-76.4394221110005674
 30
0.0
 11
-31.7391803359987499
 21
-75.2398333210003329
 31
0.0
  0
LINE
  5
B914
  8
DETAIL
  6
CONTINUOUS
 62
     5
 10
-28.9472811159985213
 20
-59.7868042370000694
 30
0.0
 11
-28.9472811159985213
 21
-76.479494141000032
 31
0.0
  0
LINE
  5
B915
  8
DETAIL
  6
CONTINUOUS
 62
     5
 10
-28.7126552429990589
 20
-58.9857765970000401
 30
0.0
 11
-28.7126552429990589
 21
-76.5749068499999339
 31
0.0
  0
LINE
  5
B91E
  8
DETAIL
  6
CONTINUOUS
 62
     5
 10
-454.4895841519964961
 20
-193.0597203930092007
 30
0.0
 11
-456.1404019229967162
 21
-187.2971789370093916
 31
0.0
  0
LINE
  5
B927
  8
DETAIL
  6
CONTINUOUS
 62
     5
 10
-459.7892407409963198
 20
-182.4867997080091016
 30
0.0
 11
-459.9061391089961717
 21
-182.0973851670086958
 31
0.0
  0
LINE
  5
B928
  8
DETAIL
  6
CONTINUOUS
 62
     5
 10
-453.6167627309960153
 20
-195.5170973610092915
 30
0.0
 11
-454.4895842409958959
 21
-193.0597201030086865
 31
0.0
  0
LINE
  5
B92C
  8
DETAIL
  6
CONTINUOUS
 62
     5
 10
-452.508947672996328
 20
-198.0141076530090061
 30
0.0
 11
-453.6167627309960153
 21
-195.5170973610092915
 31
0.0
  0
LINE
  5
B92D
  8
DETAIL
  6
CONTINUOUS
 62
     5
 10
-459.6198924879963101
 20
-182.8570503820091915
 30
0.0
 11
-459.7892407409963198
 21
-182.4867997080091016
 31
0.0
  0
LINE
  5
B955
  8
DETAIL
  6
CONTINUOUS
 62
     5
 10
-443.1489834720005092
 20
-3.032111590009662
 30
0.0
 11
-442.9759421179996934
 21
-3.0030898800087011
 31
0.0
  0
LINE
  5
B956
  8
DETAIL
  6
CONTINUOUS
 62
     5
 10
-458.5927191159980794
 20
-105.5734900070091982
 30
0.0
 11
-458.4108515799981092
 21
-105.5162731820092006
 31
0.0
  0
LINE
  5
B957
  8
DETAIL
  6
CONTINUOUS
 62
     5
 10
-458.2392808739958809
 20
-186.7316381350092058
 30
0.0
 11
-457.8026896059964201
 21
-186.5911025700087862
 31
0.0
  0
LINE
  5
B958
  8
DETAIL
  6
CONTINUOUS
 62
     5
 10
-459.684118497995712
 20
-210.4694941980087037
 30
0.0
 11
-459.5749269969956003
 21
-210.4301356470095925
 31
0.0
  0
LINE
  5
B959
  8
DETAIL
  6
CONTINUOUS
 62
     5
 10
-458.6507427059959241
 20
-186.9336257340092118
 30
0.0
 11
-458.2392808739958809
 21
-186.7316381350092058
 31
0.0
  0
LINE
  5
B95E
  8
DETAIL
  6
CONTINUOUS
 62
     5
 10
153.9129272489998925
 20
-1.87139067699627
 30
0.0
 11
154.2843179250002947
 21
-0.9429139859967108
 31
0.0
  0
LINE
  5
B9A1
  8
DETAIL
  6
CONTINUOUS
 62
     5
 10
-331.9129272480004147
 20
-1.871390677006274
 30
0.0
 11
-332.2843178820003232
 21
-0.9429140940064826
 31
0.0
  0
LINE
  5
B9A4
  8
DETAIL
  6
CONTINUOUS
 62
     5
 10
-451.2175205109961098
 20
-200.4034016740097002
 30
0.0
 11
-452.508947672996328
 21
-198.0141076530090061
 31
0.0
  0
LINE
  5
B9A6
  8
DETAIL
  6
CONTINUOUS
 62
     5
 10
-459.4005655379959876
 20
-183.2016857290091139
 30
0.0
 11
-459.6198924879963101
 21
-182.8570503820091915
 31
0.0
  0
LINE
  5
B9A7
  8
DETAIL
  6
CONTINUOUS
 62
     5
 10
-449.7531252849958037
 20
-202.6731382450088859
 30
0.0
 11
-451.2175205109961098
 21
-200.4034016740097002
 31
0.0
  0
LINE
  5
B9AF
  8
DETAIL
  6
CONTINUOUS
 62
     5
 10
-333.6770329609998953
 20
-0.0000000000063665
 30
0.0
 11
-341.0
 21
-0.000000000007276
 31
0.0
  0
LINE
  5
B9B0
  8
DETAIL
  6
CONTINUOUS
 62
     5
 10
-322.3229670379997174
 20
-0.0000000000063665
 30
0.0
 11
-155.6770329609998953
 21
-0.0000000000027285
 31
0.0
  0
LINE
  5
B9B1
  8
DETAIL
  6
CONTINUOUS
 62
     5
 10
-144.3229670380005984
 20
-0.0000000000027285
 30
0.0
 11
144.3229670390001047
 21
0.000000000003638
 31
0.0
  0
LINE
  5
B9B2
  8
DETAIL
  6
CONTINUOUS
 62
     5
 10
155.677032962000311
 20
0.000000000003638
 30
0.0
 11
322.3229670390001047
 21
0.000000000007276
 31
0.0
  0
LINE
  5
B9B3
  8
DETAIL
  6
CONTINUOUS
 62
     5
 10
333.6770329619993731
 20
0.000000000007276
 30
0.0
 11
341.0
 21
0.000000000007276
 31
0.0
  0
LINE
  5
B9C3
  8
DETAIL
  6
CONTINUOUS
 62
     5
 10
-442.9759421179996934
 20
-3.0030898800087011
 30
0.0
 11
-442.8971628569997279
 21
-2.9999924200092201
 31
0.0
  0
LINE
  5
BA23
  8
DETAIL
  6
CONTINUOUS
 62
     5
 10
-457.8026896059964201
 20
-186.5911025700087862
 30
0.0
 11
-457.3527695299961806
 21
-186.5148735050096889
 31
0.0
  0
LINE
  5
BA24
  8
DETAIL
  6
CONTINUOUS
 62
     5
 10
-459.5749269969956003
 20
-210.4301356470095925
 30
0.0
 11
-459.4797911029954776
 21
-210.4118499230089014
 31
0.0
  0
LINE
  5
BA25
  8
DETAIL
  6
CONTINUOUS
 62
     5
 10
432.9775098849995061
 20
-4.9999999999909051
 30
0.0
 11
432.9781551300001752
 21
-4.999769873990771
 31
0.0
  0
LINE
  5
BA26
  8
DETAIL
  6
CONTINUOUS
 62
     5
 10
458.8353687010030058
 20
-183.7814932589899115
 30
0.0
 11
458.4887227980033799
 21
-184.0142859149900119
 31
0.0
  0
LINE
  5
BA2A
  8
DETAIL
  6
CONTINUOUS
 62
     5
 10
459.1435747190034249
 20
-183.5050359629904051
 30
0.0
 11
458.8353687010030058
 21
-183.7814932589899115
 31
0.0
  0
LINE
  5
BA56
  8
DETAIL
  6
CONTINUOUS
 62
     5
 10
430.2400266089998127
 20
-4.7163998609903501
 30
0.0
 11
430.2360518349996141
 21
-4.7233497099914521
 31
0.0
  0
LINE
  5
BA57
  8
DETAIL
  6
CONTINUOUS
 62
     5
 10
430.2360518349996141
 20
-4.7233497099914521
 30
0.0
 11
430.2321790320002037
 21
-4.7302232769907269
 31
0.0
  0
LINE
  5
BA5A
  8
DETAIL
  6
CONTINUOUS
 62
     5
 10
331.9129272490000062
 20
-1.8713906769926321
 30
0.0
 11
332.2843178820003232
 21
-0.9429140939928402
 31
0.0
  0
LINE
  5
BB26
  8
DETAIL
  6
CONTINUOUS
 62
     5
 10
275.012767254001119
 20
-76.5749068499935532
 30
0.0
 11
275.012767254001119
 21
-58.9857765969936665
 31
0.0
  0
LINE
  5
BB27
  8
DETAIL
  6
CONTINUOUS
 62
     5
 10
275.2473931270005778
 20
-59.7868042369937029
 30
0.0
 11
275.2473931270014873
 21
-76.479494140994575
 31
0.0
  0
LINE
  5
BB2B
  8
DETAIL
  6
CONTINUOUS
 62
     5
 10
278.0392923470017195
 20
-76.4394221109942009
 30
0.0
 11
278.0392923470017195
 21
-75.2398333209939665
 31
0.0
  0
LINE
  5
BB37
  8
DETAIL
  6
CONTINUOUS
 62
     5
 10
284.9607076540013963
 20
-76.4394221109942009
 30
0.0
 11
284.9607076540013963
 21
-75.2398333209939665
 31
0.0
  0
LINE
  5
BB38
  8
DETAIL
  6
CONTINUOUS
 62
     5
 10
287.7526068740007759
 20
-59.7868042369937029
 30
0.0
 11
287.7526068740016854
 21
-76.479494140994575
 31
0.0
  0
LINE
  5
BB39
  8
DETAIL
  6
CONTINUOUS
 62
     5
 10
287.9872327460007
 20
-58.9857765969936665
 30
0.0
 11
287.9872327460016095
 21
-76.5749068499935532
 31
0.0
  0
LINE
  5
BB4E
  8
DETAIL
  6
CONTINUOUS
 62
     5
 10
306.000000000001819
 20
-105.5162731819936965
 30
0.0
 11
306.000000000001819
 21
-100.4999999999926956
 31
0.0
  0
LINE
  5
BB66
  8
DETAIL
  6
CONTINUOUS
 62
     5
 10
341.5
 20
-4.2650060049927561
 30
0.0
 11
341.5
 21
-0.4999999999927241
 31
0.0
  0
LINE
  5
BB67
  8
DETAIL
  6
CONTINUOUS
 62
     5
 10
355.0000000819999855
 20
-4.2650060049927561
 30
0.0
 11
355.0000000820010086
 21
-37.9999999999927169
 31
0.0
  0
LINE
  5
BB82
  8
DETAIL
  6
CONTINUOUS
 62
     5
 10
-153.9129272479995052
 20
-1.8713906770026361
 30
0.0
 11
-154.2843179250002947
 21
-0.9429139860030772
 31
0.0
  0
LINE
  5
BB8D
  8
DETAIL
  6
CONTINUOUS
 62
     5
 10
-448.126699381996275
 20
-204.8120820270086995
 30
0.0
 11
-449.7531252849958037
 21
-202.6731382450088859
 31
0.0
  0
LINE
  5
BB8E
  8
DETAIL
  6
CONTINUOUS
 62
     5
 10
-459.1343446109958109
 20
-183.5145145710093004
 30
0.0
 11
-459.4005655379959876
 21
-183.2016857290091139
 31
0.0
  0
LINE
  5
BB8F
  8
DETAIL
  6
CONTINUOUS
 62
     5
 10
-446.3500984649954262
 20
-206.8102394670086142
 30
0.0
 11
-448.126699381996275
 21
-204.8120820270086995
 31
0.0
  0
LINE
  5
BB96
  8
DETAIL
  6
CONTINUOUS
 62
     5
 10
431.9650576450002859
 20
-3.0022995729905229
 30
0.0
 11
432.1379530399998998
 21
-3.0293130549907801
 31
0.0
  0
LINE
  5
BBE7
  8
DETAIL
  6
CONTINUOUS
 62
     5
 10
431.8972137439994867
 20
-3.0000031849904181
 30
0.0
 11
431.9650576450002859
 21
-3.0022995729905229
 31
0.0
  0
LINE
  5
BC87
  8
DETAIL
  6
CONTINUOUS
 62
     5
 10
-456.8107064949962819
 20
-184.4139329330091073
 30
0.0
 11
-456.9862628799965023
 21
-184.4138948480095053
 31
0.0
  0
LINE
  5
BC88
  8
DETAIL
  6
CONTINUOUS
 62
     5
 10
330.9978541229992857
 20
-2.499999999992724
 30
0.0
 11
325.0021458779992827
 21
-2.499999999992724
 31
0.0
  0
LINE
  5
BC89
  8
DETAIL
  6
CONTINUOUS
 62
     5
 10
152.9978541230001952
 20
-2.499999999996362
 30
0.0
 11
147.0021458780001922
 21
-2.499999999996362
 31
0.0
  0
LINE
  5
BC8A
  8
DETAIL
  6
CONTINUOUS
 62
     5
 10
-147.0021458769996912
 20
-2.500000000002728
 30
0.0
 11
-152.9978541219998078
 21
-2.500000000002728
 31
0.0
  0
LINE
  5
BC8B
  8
DETAIL
  6
CONTINUOUS
 62
     5
 10
-325.0021458769996912
 20
-2.500000000006366
 30
0.0
 11
-330.9978541219998078
 21
-2.500000000006366
 31
0.0
  0
LINE
  5
BC8C
  8
DETAIL
  6
CONTINUOUS
 62
     5
 10
-442.8972429599999145
 20
-3.0000000000090941
 30
0.0
 11
-435.8494104440005117
 21
-3.0000000000090941
 31
0.0
  0
LINE
  5
BC8D
  8
DETAIL
  6
CONTINUOUS
 62
     5
 10
425.4211811490002901
 20
-2.9999999999909051
 30
0.0
 11
431.8972429610003019
 21
-2.9999999999909051
 31
0.0
  0
LINE
  5
BC8E
  8
DETAIL
  6
CONTINUOUS
 62
     5
 10
-409.9955445950000126
 20
-4.2650060050082166
 30
0.0
 11
399.567315299999791
 21
-4.2650060049918457
 31
0.0
  0
LINE
  5
BC8F
  8
DETAIL
  6
CONTINUOUS
 62
     5
 10
-410.0
 20
-10.2019737700084097
 30
0.0
 11
410.0
 21
-10.2019737699911293
 31
0.0
  0
LINE
  5
BC90
  8
DETAIL
  6
CONTINUOUS
 62
     5
 10
395.0000000820010086
 20
-57.9999999999918074
 30
0.0
 11
375.000000082000895
 21
-57.9999999999918074
 31
0.0
  0
LINE
  5
BC91
  8
DETAIL
  6
CONTINUOUS
 62
     5
 10
-384.999999917999105
 20
-58.0000000000072831
 30
0.0
 11
-404.9999999179989914
 21
-58.0000000000081783
 31
0.0
  0
LINE
  5
BC92
  8
DETAIL
  6
CONTINUOUS
 62
     5
 10
-357.8886625369987087
 20
-58.4832060620074117
 30
0.0
 11
-345.9111134419990776
 21
-58.4832060620065022
 31
0.0
  0
LINE
  5
BC93
  8
DETAIL
  6
CONTINUOUS
 62
     5
 10
-41.1886625369988906
 20
-58.4832060620010381
 30
0.0
 11
-29.21111344199835
 21
-58.4832060620001286
 31
0.0
  0
LINE
  5
BC94
  8
DETAIL
  6
CONTINUOUS
 62
     5
 10
275.5112254530004066
 20
-58.4832060619937693
 30
0.0
 11
287.4887745480008903
 21
-58.4832060619937693
 31
0.0
  0
LINE
  5
BC95
  8
DETAIL
  6
CONTINUOUS
 62
     5
 10
-357.8395047039985002
 20
-59.5000000000072689
 30
0.0
 11
-345.9602712739988988
 21
-59.5000000000063665
 31
0.0
  0
LINE
  5
BC96
  8
DETAIL
  6
CONTINUOUS
 62
     5
 10
-41.1395047039986821
 20
-59.5
 30
0.0
 11
-29.2602712739990309
 21
-59.5
 31
0.0
  0
LINE
  5
BC97
  8
DETAIL
  6
CONTINUOUS
 62
     5
 10
275.5603832850010804
 20
-59.4999999999936335
 30
0.0
 11
287.4396167150007955
 21
-59.4999999999936335
 31
0.0
  0
LINE
  5
BC98
  8
DETAIL
  6
CONTINUOUS
 62
     5
 10
-355.3605956429992148
 20
-75.2398333210076089
 30
0.0
 11
-348.4391803359986284
 21
-75.2398333210066852
 31
0.0
  0
LINE
  5
BC99
  8
DETAIL
  6
CONTINUOUS
 62
     5
 10
-38.6605956429984872
 20
-75.2398333210003329
 30
0.0
 11
-31.7391803359987499
 21
-75.2398333210003329
 31
0.0
  0
LINE
  5
BC9A
  8
DETAIL
  6
CONTINUOUS
 62
     5
 10
278.0392923470017195
 20
-75.2398333209939665
 30
0.0
 11
284.9607076540013963
 21
-75.2398333209939665
 31
0.0
  0
LINE
  5
BC9B
  8
DETAIL
  6
CONTINUOUS
 62
     5
 10
-357.8461964439985081
 20
-76.7393193090065324
 30
0.0
 11
-355.6602872699987188
 21
-76.7393193090065324
 31
0.0
  0
LINE
  5
BC9C
  8
DETAIL
  6
CONTINUOUS
 62
     5
 10
-348.1394887089982149
 20
-76.7393193090065324
 30
0.0
 11
-345.9535795339988908
 21
-76.7393193090065324
 31
0.0
  0
LINE
  5
BC9D
  8
DETAIL
  6
CONTINUOUS
 62
     5
 10
-41.1461964439986332
 20
-76.7393193090010755
 30
0.0
 11
-38.9602872699988509
 21
-76.739319309000166
 31
0.0
  0
LINE
  5
BC9E
  8
DETAIL
  6
CONTINUOUS
 62
     5
 10
-31.4394887089984003
 20
-76.739319309000166
 30
0.0
 11
-29.2535795339990692
 21
-76.739319309000166
 31
0.0
  0
LINE
  5
BC9F
  8
DETAIL
  6
CONTINUOUS
 62
     5
 10
275.5536915450011861
 20
-76.7393193089937995
 30
0.0
 11
277.7396007200014196
 21
-76.7393193089937995
 31
0.0
  0
LINE
  5
BCA0
  8
DETAIL
  6
CONTINUOUS
 62
     5
 10
285.2603992810018099
 20
-76.7393193089937995
 30
0.0
 11
287.4463084550015992
 21
-76.7393193089937995
 31
0.0
  0
LINE
  5
BCA1
  8
DETAIL
  6
CONTINUOUS
 62
     5
 10
287.4794507700016766
 20
-77.0759982009940359
 30
0.0
 11
275.5205492310014961
 21
-77.0759982009940359
 31
0.0
  0
LINE
  5
BCA2
  8
DETAIL
  6
CONTINUOUS
 62
     5
 10
-29.2204372199985301
 20
-77.0759982010004023
 30
0.0
 11
-41.1793387589987105
 21
-77.0759982010004023
 31
0.0
  0
LINE
  5
BCA3
  8
DETAIL
  6
CONTINUOUS
 62
     5
 10
-345.9204372199982913
 20
-77.0759982010067688
 30
0.0
 11
-357.8793387589984718
 21
-77.0759982010067688
 31
0.0
  0
LINE
  5
BCA4
  8
DETAIL
  6
CONTINUOUS
 62
     5
 10
-458.0230047829981004
 20
-100.5000000000090949
 30
0.0
 11
458.0256525020013214
 21
-100.4999999999899956
 31
0.0
  0
LINE
  5
BCA5
  8
DETAIL
  6
CONTINUOUS
 62
     5
 10
-458.4108515799981092
 20
-105.5162731820092006
 30
0.0
 11
458.4617347430021255
 21
-105.5162731819901012
 31
0.0
  0
LINE
  5
BCA6
  8
DETAIL
  6
CONTINUOUS
 62
     5
 10
-457.0453262864630233
 20
-186.5000059942613007
 30
0.0
 11
-456.3257321669960902
 21
-186.5000000000090949
 31
0.0
  0
LINE
  5
BCA7
  8
DETAIL
  6
CONTINUOUS
 62
     5
 10
456.3259190740035933
 20
-186.4999999999909051
 30
0.0
 11
457.0438789910040214
 21
-186.4999999999899956
 31
0.0
  0
LINE
  5
BCA8
  8
DETAIL
  6
CONTINUOUS
 62
     5
 10
456.9862626640032772
 20
-184.4138948579901864
 30
0.0
 11
456.8106617780030092
 21
-184.4139329609897118
 31
0.0
  0
LINE
  5
BCA9
  8
DETAIL
  6
CONTINUOUS
 62
     5
 10
-459.392907641996203
 20
-210.4047306120091889
 30
0.0
 11
-459.3070073879961797
 21
-210.404233479009207
 31
0.0
  0
LINE
  5
BCAA
  8
DETAIL
  6
CONTINUOUS
 62
     5
 10
415.197483820004777
 20
-218.1765858169910928
 30
0.0
 11
410.0000000000044906
 21
-218.2888261049911023
 31
0.0
  0
LINE
  5
BCAB
  8
DETAIL
  6
CONTINUOUS
 62
     5
 10
416.1214569730045127
 20
-218.1160711859911032
 30
0.0
 11
418.9957280550042924
 21
-217.9836284979911056
 31
0.0
  0
LINE
  5
BCAC
  8
DETAIL
  6
CONTINUOUS
 62
     5
 10
-457.3527695299961806
 20
-186.5148735050096889
 30
0.0
 11
-457.0453262864630233
 21
-186.5000059942613007
 31
0.0
  0
LINE
  5
BCAD
  8
DETAIL
  6
CONTINUOUS
 62
     5
 10
457.2803346460032117
 20
-184.3995859589904001
 30
0.0
 11
456.986272634003285
 21
-184.4138905109903135
 31
0.0
  0
LINE
  5
BCAE
  8
DETAIL
  6
CONTINUOUS
 62
     5
 10
459.2135552270037238
 20
-210.40894800399019
 30
0.0
 11
459.3040800040043905
 21
-210.4043077069908918
 31
0.0
  0
LINE
  5
BCAF
  8
DETAIL
  6
CONTINUOUS
 62
     5
 10
420.5356139990043971
 20
-217.8269707019917121
 30
0.0
 11
415.197483820004777
 21
-218.1765858169910928
 31
0.0
  0
LINE
  5
BCB0
  8
DETAIL
  6
CONTINUOUS
 62
     5
 10
418.9957280550042924
 20
-217.9836284979911056
 30
0.0
 11
423.5996390510043739
 21
-217.6251185369910957
 31
0.0
  0
LINE
  5
BCBB
  8
DETAIL
  6
CONTINUOUS
 62
     5
 10
-459.4797911029954776
 20
-210.4118499230089014
 30
0.0
 11
-459.392907641996203
 21
-210.4047306120091889
 31
0.0
  0
LINE
  5
BCBC
  8
DETAIL
  6
CONTINUOUS
 62
     5
 10
459.1146545180044996
 20
-210.4181425129899878
 30
0.0
 11
459.2135552270037238
 21
-210.40894800399019
 31
0.0
  0
LINE
  5
BCBD
  8
DETAIL
  6
CONTINUOUS
 62
     5
 10
425.6946573550039261
 20
-217.2614957409915064
 30
0.0
 11
420.5356139990043971
 21
-217.8269707019917121
 31
0.0
  0
LINE
  5
BCBE
  8
DETAIL
  6
CONTINUOUS
 62
     5
 10
423.5996390510043739
 20
-217.6251185369910957
 30
0.0
 11
428.1934767920046738
 21
-217.1204122999907042
 31
0.0
  0
LINE
  5
BCBF
  8
DETAIL
  6
CONTINUOUS
 62
     5
 10
459.0047130180037129
 20
-210.4319520279904907
 30
0.0
 11
459.1146545180044996
 21
-210.4181425129899878
 31
0.0
  0
LINE
  5
BCC0
  8
DETAIL
  6
CONTINUOUS
 62
     5
 10
428.1934767920046738
 20
-217.1204122999907042
 30
0.0
 11
432.7565247650044853
 21
-216.4721729589909955
 31
0.0
  0
LINE
  5
BCC1
  8
DETAIL
  6
CONTINUOUS
 62
     5
 10
458.8816693410034873
 20
-210.4506114569902877
 30
0.0
 11
459.0047130180037129
 21
-210.4319520279904907
 31
0.0
  0
LINE
  5
BCC2
  8
DETAIL
  6
CONTINUOUS
 62
     5
 10
428.1421925210041763
 20
-216.847125372991286
 30
0.0
 11
425.6944018970044112
 21
-217.2587151249909141
 31
0.0
  0
LINE
  5
BCC3
  8
DETAIL
  6
CONTINUOUS
 62
     5
 10
457.7044232670040742
 20
-184.3276143499896875
 30
0.0
 11
457.2803346460032117
 21
-184.3995859589904001
 31
0.0
  0
LINE
  5
BCC4
  8
DETAIL
  6
CONTINUOUS
 62
     5
 10
458.7438492860036945
 20
-210.4744256179901072
 30
0.0
 11
458.8816693410034873
 21
-210.4506114569902877
 31
0.0
  0
LINE
  5
BCC5
  8
DETAIL
  6
CONTINUOUS
 62
     5
 10
432.7565247650044853
 20
-216.4721729589909955
 30
0.0
 11
437.2687567440042926
 21
-215.6849253679901892
 31
0.0
  0
LINE
  5
BCC6
  8
DETAIL
  6
CONTINUOUS
 62
     5
 10
458.5898628480035768
 20
-210.5037168779900014
 30
0.0
 11
458.7438492860036945
 21
-210.4744256179901072
 31
0.0
  0
LINE
  5
BCC7
  8
DETAIL
  6
CONTINUOUS
 62
     5
 10
458.4179691640038072
 20
-210.5389089939909013
 30
0.0
 11
458.5898628480035768
 21
-210.5037168779900014
 31
0.0
  0
LINE
  5
BCC8
  8
DETAIL
  6
CONTINUOUS
 62
     5
 10
437.2687567440042926
 20
-215.6849253679901892
 30
0.0
 11
441.5785275840042914
 21
-214.7951321029904932
 31
0.0
  0
LINE
  5
BCC9
  8
DETAIL
  6
CONTINUOUS
 62
     5
 10
458.2258977710034742
 20
-210.5805742089906119
 30
0.0
 11
458.4179691640038072
 21
-210.5389089939909013
 31
0.0
  0
LINE
  5
BCCA
  8
DETAIL
  6
CONTINUOUS
 62
     5
 10
441.5785272250039952
 20
-214.7951323499910075
 30
0.0
 11
442.9533723560044223
 21
-214.4846412139904999
 31
0.0
  0
LINE
  5
BCCB
  8
DETAIL
  6
CONTINUOUS
 62
     5
 10
458.0111595170047281
 20
-210.6293823279902142
 30
0.0
 11
458.2258977710034742
 21
-210.5805742089906119
 31
0.0
  0
LINE
  5
BCCC
  8
DETAIL
  6
CONTINUOUS
 62
     5
 10
442.9533723560044223
 20
-214.4846412139904999
 30
0.0
 11
444.3771963510034766
 21
-214.1528055469906917
 31
0.0
  0
LINE
  5
BCCD
  8
DETAIL
  6
CONTINUOUS
 62
     5
 10
457.771067614004096
 20
-210.6860800519897907
 30
0.0
 11
458.0111595170047281
 21
-210.6293823279902142
 31
0.0
  0
LINE
  5
BCCE
  8
DETAIL
  6
CONTINUOUS
 62
     5
 10
444.3771963510034766
 20
-214.1528055469906917
 30
0.0
 11
445.7085906800037947
 21
-213.8333255739908054
 31
0.0
  0
LINE
  5
BCCF
  8
DETAIL
  6
CONTINUOUS
 62
     5
 10
457.5029478340038054
 20
-210.7514197959899036
 30
0.0
 11
457.771067614004096
 21
-210.6860800519897907
 31
0.0
  0
LINE
  5
BCD0
  8
DETAIL
  6
CONTINUOUS
 62
     5
 10
430.6960383580043867
 20
-216.2233911479906965
 30
0.0
 11
428.1421925210041763
 21
-216.847125372991286
 31
0.0
  0
LINE
  5
BCD1
  8
DETAIL
  6
CONTINUOUS
 62
     5
 10
445.7085906800037947
 20
-213.8333255739908054
 30
0.0
 11
446.9502533430040216
 21
-213.5276831689907056
 31
0.0
  0
LINE
  5
BCD2
  8
DETAIL
  6
CONTINUOUS
 62
     5
 10
457.2042935380039808
 20
-210.8261188789902008
 30
0.0
 11
457.5029478340038054
 21
-210.7514197959899036
 31
0.0
  0
LINE
  5
BCD3
  8
DETAIL
  6
CONTINUOUS
 62
     5
 10
446.9502533430040216
 20
-213.5276831689907056
 30
0.0
 11
448.1050694730038231
 21
-213.2370778839903949
 31
0.0
  0
LINE
  5
BCD4
  8
DETAIL
  6
CONTINUOUS
 62
     5
 10
456.8725436010034855
 20
-210.9108933649903861
 30
0.0
 11
457.2042935380039808
 21
-210.8261188789902008
 31
0.0
  0
LINE
  5
BCD5
  8
DETAIL
  6
CONTINUOUS
 62
     5
 10
448.1050694730038231
 20
-213.2370778839903949
 30
0.0
 11
449.1763129440041098
 21
-212.9623715869902014
 31
0.0
  0
LINE
  5
BCD6
  8
DETAIL
  6
CONTINUOUS
 62
     5
 10
456.505091168004526
 20
-211.006438576990206
 30
0.0
 11
456.8725436010034855
 21
-210.9108933649903861
 31
0.0
  0
LINE
  5
BCD7
  8
DETAIL
  6
CONTINUOUS
 62
     5
 10
449.1763129440041098
 20
-212.9623715869902014
 30
0.0
 11
450.1675429830037842
 21
-212.7041271309900026
 31
0.0
  0
LINE
  5
BCD8
  8
DETAIL
  6
CONTINUOUS
 62
     5
 10
456.0994487860043023
 20
-211.1133917269908125
 30
0.0
 11
456.505091168004526
 21
-211.006438576990206
 31
0.0
  0
LINE
  5
BCD9
  8
DETAIL
  6
CONTINUOUS
 62
     5
 10
450.1675429830037842
 20
-212.7041271309900026
 30
0.0
 11
451.0824633690035057
 21
-212.4626544269904116
 31
0.0
  0
LINE
  5
BCDA
  8
DETAIL
  6
CONTINUOUS
 62
     5
 10
451.0824633690035057
 20
-212.4626544269904116
 30
0.0
 11
451.9242709070039723
 21
-212.238197035990197
 31
0.0
  0
LINE
  5
BCDB
  8
DETAIL
  6
CONTINUOUS
 62
     5
 10
455.163839258004316
 20
-211.3637595559902991
 30
0.0
 11
456.0994487860043023
 21
-211.1133917269908125
 31
0.0
  0
LINE
  5
BCDC
  8
DETAIL
  6
CONTINUOUS
 62
     5
 10
451.9242709070039723
 20
-212.238197035990197
 30
0.0
 11
453.4003489240038789
 21
-211.8406914429907033
 31
0.0
  0
LINE
  5
BCDD
  8
DETAIL
  6
CONTINUOUS
 62
     5
 10
453.4003489240038789
 20
-211.8406914429907033
 30
0.0
 11
455.163839258004316
 21
-211.3637595559902991
 31
0.0
  0
LINE
  5
BCDE
  8
DETAIL
  6
CONTINUOUS
 62
     5
 10
458.1095673040035194
 20
-184.1978853159907885
 30
0.0
 11
457.7044232670040742
 21
-184.3276143499896875
 31
0.0
  0
LINE
  5
BCDF
  8
DETAIL
  6
CONTINUOUS
 62
     5
 10
433.1962165040039849
 20
-215.409391686991512
 30
0.0
 11
430.6960383580043867
 21
-216.2233911479906965
 31
0.0
  0
LINE
  5
BCE0
  8
DETAIL
  6
CONTINUOUS
 62
     5
 10
435.6297558550040208
 20
-214.4092335589903087
 30
0.0
 11
433.1962165040039849
 21
-215.409391686991512
 31
0.0
  0
LINE
  5
BCE4
  8
DETAIL
  6
CONTINUOUS
 62
     5
 10
458.4887227980033799
 20
-184.0142859149900119
 30
0.0
 11
458.1095673040035194
 21
-184.1978853159907885
 31
0.0
  0
LINE
  5
BCE7
  8
DETAIL
  6
CONTINUOUS
 62
     5
 10
437.9839024050043008
 20
-213.2273872849910106
 30
0.0
 11
435.6297558550040208
 21
-214.4092335589903087
 31
0.0
  0
LINE
  5
BCEC
  8
DETAIL
  6
CONTINUOUS
 62
     5
 10
440.2460691000042061
 20
-211.8693697379912919
 30
0.0
 11
437.9839024050043008
 21
-213.2273872849910106
 31
0.0
  0
LINE
  5
BCEF
  8
DETAIL
  6
CONTINUOUS
 62
     5
 10
442.4040904330040007
 20
-210.340921896990892
 30
0.0
 11
440.2460691000042061
 21
-211.8693697379912919
 31
0.0
  0
LINE
  5
BCF0
  8
DETAIL
  6
CONTINUOUS
 62
     5
 10
444.4461407580046739
 20
-208.6484878949904953
 30
0.0
 11
442.4040904330040007
 21
-210.340921896990892
 31
0.0
  0
LINE
  5
BCF1
  8
DETAIL
  6
CONTINUOUS
 62
     5
 10
446.360690180003985
 20
-206.7991771959904952
 30
0.0
 11
444.4461407580046739
 21
-208.6484878949904953
 31
0.0
  0
LINE
  5
BCF2
  8
DETAIL
  6
CONTINUOUS
 62
     5
 10
448.1361747870042223
 20
-204.8005678849903859
 30
0.0
 11
446.360690180003985
 21
-206.7991771959904952
 31
0.0
  0
LINE
  5
BCF3
  8
DETAIL
  6
CONTINUOUS
 62
     5
 10
459.4084319020038834
 20
-183.1909754399902965
 30
0.0
 11
459.1435747190034249
 21
-183.5050359629904051
 31
0.0
  0
LINE
  5
BCF4
  8
DETAIL
  6
CONTINUOUS
 62
     5
 10
449.7615146660036203
 20
-202.6611720109904127
 30
0.0
 11
448.1361747870042223
 21
-204.8005678849903859
 31
0.0
  0
LINE
  5
BCF5
  8
DETAIL
  6
CONTINUOUS
 62
     5
 10
451.2248426400037147
 20
-200.391019632990691
 30
0.0
 11
449.7615146660036203
 21
-202.6611720109904127
 31
0.0
  0
LINE
  5
BCF7
  8
DETAIL
  6
CONTINUOUS
 62
     5
 10
459.6262445560032006
 20
-182.8452969389900034
 30
0.0
 11
459.4084319020038834
 21
-183.1909754399902965
 31
0.0
  0
LINE
  5
BD22
  8
DETAIL
  6
CONTINUOUS
 62
     5
 10
452.5151522750037998
 20
-198.0014627509899015
 30
0.0
 11
451.2248426400037147
 21
-200.391019632990691
 31
0.0
  0
LINE
  5
BD23
  8
DETAIL
  6
CONTINUOUS
 62
     5
 10
459.7939492650039028
 20
-182.4742118209906039
 30
0.0
 11
459.6262445560032006
 21
-182.8452969389900034
 31
0.0
  0
LINE
  5
BD24
  8
DETAIL
  6
CONTINUOUS
 62
     5
 10
453.6217749780042823
 20
-195.5044734909905912
 30
0.0
 11
452.5151522750037998
 21
-198.0014627509899015
 31
0.0
  0
LINE
  5
BD28
  8
DETAIL
  6
CONTINUOUS
 62
     5
 10
454.4895841120031719
 20
-193.0597003729907897
 30
0.0
 11
453.6217749780042823
 21
-195.5044734909905912
 31
0.0
  0
LINE
  5
BD29
  8
DETAIL
  6
CONTINUOUS
 62
     5
 10
459.9090996990033773
 20
-182.0841954129901126
 30
0.0
 11
459.7939492650039028
 21
-182.4742118209906039
 31
0.0
  0
LINE
  5
BD2A
  8
DETAIL
  6
CONTINUOUS
 62
     5
 10
456.1432173720040169
 20
-187.2862480359908091
 30
0.0
 11
454.4895840690031719
 21
-193.0597007319902048
 31
0.0
  0
LINE
  5
BD2B
  8
DETAIL
  6
CONTINUOUS
 62
     5
 10
457.5337396540033978
 20
-181.3022019069904047
 30
0.0
 11
456.1432173720040169
 21
-187.2862480359908091
 31
0.0
  0
LINE
  5
BD2C
  8
DETAIL
  6
CONTINUOUS
 62
     5
 10
458.6152069570034087
 20
-175.2612472499895091
 30
0.0
 11
457.5337396540033978
 21
-181.3022019069904047
 31
0.0
  0
LINE
  5
BD2D
  8
DETAIL
  6
CONTINUOUS
 62
     5
 10
460.3577510909998978
 20
-13.5674875259901402
 30
0.0
 11
460.0723380779999729
 21
-15.2791397819901196
 31
0.0
  0
LINE
  5
BD3C
  8
DETAIL
  6
CONTINUOUS
 62
     5
 10
459.9699289510035101
 20
-181.6817116649899049
 30
0.0
 11
459.9090996990033773
 21
-182.0841954129901126
 31
0.0
  0
LINE
  5
BD3D
  8
DETAIL
  6
CONTINUOUS
 62
     5
 10
459.385431119002476
 20
-169.1826605099903986
 30
0.0
 11
458.6152069570034087
 21
-175.2612472499895091
 31
0.0
  0
LINE
  5
BD5D
  8
DETAIL
  6
CONTINUOUS
 62
     5
 10
459.8436611800033802
 20
-163.0856218249901133
 30
0.0
 11
459.385431119002476
 21
-169.1826605099903986
 31
0.0
  0
LINE
  5
BD67
  8
DETAIL
  6
CONTINUOUS
 62
     5
 10
459.9798255620034979
 20
-181.4389610239904869
 30
0.0
 11
459.9699289510035101
 21
-181.6817116649899049
 31
0.0
  0
LINE
  5
BD6A
  8
DETAIL
  6
CONTINUOUS
 62
     5
 10
460.0584506280001165
 20
-15.5033169389898795
 30
0.0
 11
460.0558754379998732
 21
-15.5821488859901294
 31
0.0
  0
LINE
  5
BD6D
  8
DETAIL
  6
CONTINUOUS
 62
     5
 10
459.980123978215488
 20
-211.3769954572134964
 30
0.0
 11
459.9367137930038894
 21
-213.0298972499903982
 31
0.0
  0
LINE
  5
BD71
  8
DETAIL
  6
CONTINUOUS
 62
     5
 10
460.0558754379998732
 20
-15.5821488859901294
 30
0.0
 11
460.0537723030001871
 21
-15.6610060889906908
 31
0.0
  0
LINE
  5
BD72
  8
DETAIL
  6
CONTINUOUS
 62
     5
 10
459.9908297110031867
 20
-157.1474001049901119
 30
0.0
 11
459.8436611800033802
 21
-163.0856218249901133
 31
0.0
  0
LINE
  5
BD81
  8
DETAIL
  6
CONTINUOUS
 62
     5
 10
459.9815276490044198
 20
-211.269876303989804
 30
0.0
 11
459.9801239782163975
 21
-211.3769954571870926
 31
0.0
  0
LINE
  5
BD82
  8
DETAIL
  6
CONTINUOUS
 62
     5
 10
460.0921587710034828
 20
-188.887568493990301
 30
0.0
 11
460.0721752400032187
 21
-190.957500635990101
 31
0.0
  0
LINE
  5
BD83
  8
DETAIL
  6
CONTINUOUS
 62
     5
 10
460.0721752400032187
 20
-190.957500635990101
 30
0.0
 11
460.0551378800035991
 21
-193.1419011869901965
 31
0.0
  0
LINE
  5
BD84
  8
DETAIL
  6
CONTINUOUS
 62
     5
 10
460.0551378800035991
 20
-193.1419011869901965
 30
0.0
 11
460.0415711880041272
 21
-195.2617797549901013
 31
0.0
  0
LINE
  5
BD85
  8
DETAIL
  6
CONTINUOUS
 62
     5
 10
460.0415711880041272
 20
-195.2617797549901013
 30
0.0
 11
460.0306233760038026
 21
-197.2998536259902096
 31
0.0
  0
LINE
  5
BDBA
  8
DETAIL
  6
CONTINUOUS
 62
     5
 10
460.0306233760038026
 20
-197.2998536259902096
 30
0.0
 11
460.0144459690035887
 21
-201.0654969169900141
 31
0.0
  0
LINE
  5
BDBB
  8
DETAIL
  6
CONTINUOUS
 62
     5
 10
460.0144459690035887
 20
-201.0654969169900141
 30
0.0
 11
459.9987318960037896
 21
-205.7673824179900919
 31
0.0
  0
LINE
  5
BDBC
  8
DETAIL
  6
CONTINUOUS
 62
     5
 10
459.9987318960037896
 20
-205.7673824179900919
 30
0.0
 11
459.9815276490044198
 21
-211.269876303989804
 31
0.0
  0
LINE
  5
BDC1
  8
DETAIL
  6
CONTINUOUS
 62
     5
 10
410.000000000001819
 20
-105.516273180991405
 30
0.0
 11
410.000000000001819
 21
-100.4999999999909051
 31
0.0
  0
LINE
  5
BDC3
  8
DETAIL
  6
CONTINUOUS
 62
     5
 10
415.000000082000895
 20
-37.9999999999909122
 30
0.0
 11
415.0000000819999855
 21
-3.9120475136232922
 31
0.0
  0
LINE
  5
BDC9
  8
DETAIL
  6
CONTINUOUS
 62
     5
 10
455.0000000000046043
 20
-210.5340376239909972
 30
0.0
 11
455.0000000000035811
 21
-191.2776477029910893
 31
0.0
  0
LINE
  5
BDCA
  8
DETAIL
  6
CONTINUOUS
 62
     5
 10
455.000000000001819
 20
-100.4999999999909051
 30
0.0
 11
455.000000000001819
 21
-105.5162731819909965
 31
0.0
  0
LINE
  5
BDCC
  8
DETAIL
  6
CONTINUOUS
 62
     5
 10
459.9798559026903035
 20
-157.5901911448681858
 30
0.0
 11
459.9798328890037169
 21
-181.4389606199902119
 31
0.0
  0
LINE
  5
BDCD
  8
DETAIL
  6
CONTINUOUS
 62
     5
 10
459.9798563300009846
 20
-98.9271321637024812
 30
0.0
 11
459.9798563300017804
 21
-107.6582785099416952
 31
0.0
  0
LINE
  5
BDD0
  8
DETAIL
  6
CONTINUOUS
 62
     5
 10
459.9909305770024162
 20
-107.8664567089908957
 30
0.0
 11
459.9911984850032241
 21
-157.1473721929905878
 31
0.0
  0
LINE
  5
BDD5
  8
DETAIL
  6
CONTINUOUS
 62
     5
 10
460.0144950650009719
 20
-39.5456819659902976
 30
0.0
 11
460.0279560130019831
 21
-98.5018334489905101
 31
0.0
  0
LINE
  5
BDDB
  8
DETAIL
  6
CONTINUOUS
 62
     5
 10
432.9778395929998283
 20
-4.8995444759912061
 30
0.0
 11
432.9781759839524966
 21
-5.0468701889130889
 31
0.0
  0
LINE
  5
BDEE
  8
DETAIL
  6
CONTINUOUS
 62
     5
 10
432.975285475000419
 20
-4.6960278389906298
 30
0.0
 11
432.9778395929998283
 21
-4.8995444759912061
 31
0.0
  0
LINE
  5
BE2D
  8
DETAIL
  6
CONTINUOUS
 62
     5
 10
432.9706187330002081
 20
-4.5133997879911467
 30
0.0
 11
432.975285475000419
 21
-4.6960278389906298
 31
0.0
  0
LINE
  5
BE31
  8
DETAIL
  6
CONTINUOUS
 62
     5
 10
459.988098899002523
 20
-107.7627439579900965
 30
0.0
 11
459.9908122250026281
 21
-107.866458133990804
 31
0.0
  0
LINE
  5
BE34
  8
DETAIL
  6
CONTINUOUS
 62
     5
 10
460.0921588670033771
 20
-188.8875689279902872
 30
0.0
 11
460.0920556940035908
 21
-188.8842584209905908
 31
0.0
  0
LINE
  5
BE38
  8
DETAIL
  6
CONTINUOUS
 62
     5
 10
432.9642855359998066
 20
-4.3547068409907288
 30
0.0
 11
432.9706187330002081
 21
-4.5133997879911467
 31
0.0
  0
LINE
  5
BE3B
  8
DETAIL
  6
CONTINUOUS
 62
     5
 10
432.9565745279996918
 20
-4.2189644259906336
 30
0.0
 11
432.9642855359998066
 21
-4.3547068409907288
 31
0.0
  0
LINE
  5
BE40
  8
DETAIL
  6
CONTINUOUS
 62
     5
 10
459.9812505424624192
 20
-107.670502262175404
 30
0.0
 11
459.988098899002523
 21
-107.7627439579900965
 31
0.0
  0
LINE
  5
BE41
  8
DETAIL
  6
CONTINUOUS
 62
     5
 10
432.9475623589996189
 20
-4.1037392909911432
 30
0.0
 11
432.9565745279996918
 21
-4.2189644259906336
 31
0.0
  0
LINE
  5
BE42
  8
DETAIL
  6
CONTINUOUS
 62
     5
 10
432.936793779999789
 20
-4.0038318849910857
 30
0.0
 11
432.9475623589996189
 21
-4.1037392909911432
 31
0.0
  0
LINE
  5
BE43
  8
DETAIL
  6
CONTINUOUS
 62
     5
 10
459.934433567002884
 20
-107.2600346149902037
 30
0.0
 11
459.981250542464295
 21
-107.6705022621891032
 31
0.0
  0
LINE
  5
BE45
  8
DETAIL
  6
CONTINUOUS
 62
     5
 10
460.0907585370031825
 20
-188.8753168969905971
 30
0.0
 11
460.0920551240033092
 21
-188.8842585409902028
 31
0.0
  0
LINE
  5
BE47
  8
DETAIL
  6
CONTINUOUS
 62
     5
 10
432.9225546619999818
 20
-3.9098720749907439
 30
0.0
 11
432.936793779999789
 21
-4.0038318849910857
 31
0.0
  0
LINE
  5
BE50
  8
DETAIL
  6
CONTINUOUS
 62
     5
 10
459.9018931120025968
 20
-107.0638209289899976
 30
0.0
 11
459.9347246320020872
 21
-107.262606052990094
 31
0.0
  0
LINE
  5
BE5F
  8
DETAIL
  6
CONTINUOUS
 62
     5
 10
146.0870727519996137
 20
-1.8713906769971791
 30
0.0
 11
145.7156821719999868
 21
-0.9429142269964359
 31
0.0
  0
LINE
  5
BEA4
  8
DETAIL
  6
CONTINUOUS
 62
     5
 10
-444.4344673179958249
 20
-208.6589831260089056
 30
0.0
 11
-446.3500984649954262
 21
-206.8102394670086142
 31
0.0
  0
LINE
  5
BEA5
  8
DETAIL
  6
CONTINUOUS
 62
     5
 10
-458.8249438629964061
 20
-183.7895721640088027
 30
0.0
 11
-459.1343446109958109
 21
-183.5145145710093004
 31
0.0
  0
LINE
  5
BEA6
  8
DETAIL
  6
CONTINUOUS
 62
     5
 10
-442.3914953339963176
 20
-210.3505437720087059
 30
0.0
 11
-444.4344673179958249
 21
-208.6589831260089056
 31
0.0
  0
LINE
  5
BEAA
  8
DETAIL
  6
CONTINUOUS
 62
     5
 10
459.476749562004386
 20
-210.4114623229907011
 30
0.0
 11
459.571494219003398
 21
-210.4292468479906972
 31
0.0
  0
LINE
  5
BEAB
  8
DETAIL
  6
CONTINUOUS
 62
     5
 10
457.3391570480034147
 20
-186.5136344229904068
 30
0.0
 11
457.7894236270038846
 21
-186.5880031289906924
 31
0.0
  0
LINE
  5
BEAC
  8
DETAIL
  6
CONTINUOUS
 62
     5
 10
-459.1179951029961899
 20
-210.4177761720092974
 30
0.0
 11
-459.0083881189956969
 21
-210.4314420760092901
 31
0.0
  0
LINE
  5
BEAD
  8
DETAIL
  6
CONTINUOUS
 62
     5
 10
-428.2062164649951228
 20
-217.1188070260085965
 30
0.0
 11
-423.6125703659953956
 21
-217.6239041980088018
 31
0.0
  0
LINE
  5
BEAE
  8
DETAIL
  6
CONTINUOUS
 62
     5
 10
-420.5224182659957819
 20
-217.8281291420080947
 30
0.0
 11
-425.6947771139957126
 21
-217.2614799950079032
 31
0.0
  0
LINE
  5
BEAF
  8
DETAIL
  6
CONTINUOUS
 62
     5
 10
-459.2166419949962233
 20
-210.4087222400094106
 30
0.0
 11
-459.1179951029961899
 21
-210.4177761720092974
 31
0.0
  0
LINE
  5
BEB0
  8
DETAIL
  6
CONTINUOUS
 62
     5
 10
459.3900114020042906
 20
-210.4046189919899916
 30
0.0
 11
459.476749562004386
 21
-210.4114623229907011
 31
0.0
  0
LINE
  5
BEB1
  8
DETAIL
  6
CONTINUOUS
 62
     5
 10
-423.6125703659953956
 20
-217.6239041980088018
 30
0.0
 11
-419.0088049849954928
 21
-217.9828181370085076
 31
0.0
  0
LINE
  5
BEB2
  8
DETAIL
  6
CONTINUOUS
 62
     5
 10
-415.1842026709954894
 20
-218.1771589360077996
 30
0.0
 11
-420.5224182659957819
 21
-217.8281291420080947
 31
0.0
  0
LINE
  5
BEB3
  8
DETAIL
  6
CONTINUOUS
 62
     5
 10
-459.3070073879961797
 20
-210.404233479009207
 30
0.0
 11
-459.2166419949962233
 21
-210.4087222400094106
 31
0.0
  0
LINE
  5
BEB4
  8
DETAIL
  6
CONTINUOUS
 62
     5
 10
-456.9862727609960871
 20
-184.4138905090094056
 30
0.0
 11
-457.2674616319964116
 21
-184.4008117340090109
 31
0.0
  0
LINE
  5
BEB5
  8
DETAIL
  6
CONTINUOUS
 62
     5
 10
457.0438892220034859
 20
-186.5000033319902002
 30
0.0
 11
457.3391570480034147
 21
-186.5136344229904068
 31
0.0
  0
LINE
  5
BEB6
  8
DETAIL
  6
CONTINUOUS
 62
     5
 10
-419.0088049849954928
 20
-217.9828181370085076
 30
0.0
 11
-416.1086210469957223
 21
-218.1167174740085102
 31
0.0
  0
LINE
  5
BEB7
  8
DETAIL
  6
CONTINUOUS
 62
     5
 10
-409.9999999979954737
 20
-218.2888261050084111
 30
0.0
 11
-415.1842026709954894
 21
-218.1771589360077996
 31
0.0
  0
LINE
  5
BEB8
  8
DETAIL
  6
CONTINUOUS
 62
     5
 10
459.3040800040043905
 20
-210.4043077069908918
 30
0.0
 11
459.3900114020042906
 21
-210.4046189919899916
 31
0.0
  0
LINE
  5
BEB9
  8
DETAIL
  6
CONTINUOUS
 62
     5
 10
-136.3865168479960062
 20
-223.7446898600028078
 30
0.0
 11
-410.2116238409952871
 21
-223.299962788008088
 31
0.0
  0
LINE
  5
BEBA
  8
DETAIL
  6
CONTINUOUS
 62
     5
 10
410.0000000000044906
 20
-218.2888261509916106
 30
0.0
 11
-409.9999999979954737
 21
-218.2888261510078962
 31
0.0
  0
LINE
  5
BEBB
  8
DETAIL
  6
CONTINUOUS
 62
     5
 10
136.8508387720048063
 20
-223.7443124799966085
 30
0.0
 11
-136.3865168479960062
 21
-223.7446898600028078
 31
0.0
  0
LINE
  5
BEBC
  8
DETAIL
  6
CONTINUOUS
 62
     5
 10
410.2119832240049959
 20
-223.2995836869914115
 30
0.0
 11
136.8508387720048063
 21
-223.7443124799966085
 31
0.0
  0
LINE
  5
BEF9
  8
DETAIL
  6
CONTINUOUS
 62
     5
 10
432.9013601469995933
 20
-3.8119769139912019
 30
0.0
 11
432.9225546619999818
 21
-3.9098720749907439
 31
0.0
  0
LINE
  5
BEFA
  8
DETAIL
  6
CONTINUOUS
 62
     5
 10
460.0171279860032882
 20
-188.6122262829904059
 30
0.0
 11
460.0907584100032182
 21
-188.8753257939897026
 31
0.0
  0
LINE
  5
BEFB
  8
DETAIL
  6
CONTINUOUS
 62
     5
 10
459.8202692710019051
 20
-106.7867694109900043
 30
0.0
 11
459.9018931120025968
 21
-107.0638209289899976
 31
0.0
  0
LINE
  5
BEFC
  8
DETAIL
  6
CONTINUOUS
 62
     5
 10
432.8701855939997927
 20
-3.7094363659907681
 30
0.0
 11
432.9013601469995933
 21
-3.8119769139912019
 31
0.0
  0
LINE
  5
BEFD
  8
DETAIL
  6
CONTINUOUS
 62
     5
 10
324.0870727519995853
 20
-1.871390676993542
 30
0.0
 11
323.7156821720000153
 21
-0.9429142269927979
 31
0.0
  0
LINE
  5
BEFE
  8
DETAIL
  6
CONTINUOUS
 62
     5
 10
432.8274957639997069
 20
-3.6055011189910142
 30
0.0
 11
432.8701855939997927
 21
-3.7094363659907681
 31
0.0
  0
LINE
  5
BEFF
  8
DETAIL
  6
CONTINUOUS
 62
     5
 10
459.8525209760036887
 20
-188.2128109979902888
 30
0.0
 11
460.0171279860032882
 21
-188.6122262829904059
 31
0.0
  0
LINE
  5
BF00
  8
DETAIL
  6
CONTINUOUS
 62
     5
 10
459.69991844100241
 20
-106.5226512399903953
 30
0.0
 11
459.8202692710019051
 21
-106.7867694109900043
 31
0.0
  0
LINE
  5
BF0F
  8
DETAIL
  6
CONTINUOUS
 62
     5
 10
-440.232918565995476
 20
-211.8779485150089101
 30
0.0
 11
-442.3914953339963176
 21
-210.3505437720087059
 31
0.0
  0
LINE
  5
BF12
  8
DETAIL
  6
CONTINUOUS
 62
     5
 10
-458.4773020109960271
 20
-184.0208128270095926
 30
0.0
 11
-458.8249438629964061
 21
-183.7895721640088027
 31
0.0
  0
LINE
  5
BF14
  8
DETAIL
  6
CONTINUOUS
 62
     5
 10
-437.9705335239959254
 20
-213.2347432220086034
 30
0.0
 11
-440.232918565995476
 21
-211.8779485150089101
 31
0.0
  0
LINE
  5
BF29
  8
DETAIL
  6
CONTINUOUS
 62
     5
 10
-455.6625362619952284
 20
-211.2298213210088136
 30
0.0
 11
-452.7072264559956238
 21
-212.027839664008809
 31
0.0
  0
LINE
  5
BF2A
  8
DETAIL
  6
CONTINUOUS
 62
     5
 10
-452.7072264559956238
 20
-212.027839664008809
 30
0.0
 11
-451.9359861189959133
 21
-212.2350601800089862
 31
0.0
  0
LINE
  5
BF2B
  8
DETAIL
  6
CONTINUOUS
 62
     5
 10
-451.9359861189959133
 20
-212.2350601800089862
 30
0.0
 11
-451.0944676649959888
 21
-212.4594684990088069
 31
0.0
  0
LINE
  5
BF2C
  8
DETAIL
  6
CONTINUOUS
 62
     5
 10
-456.1083575269958033
 20
-211.1110297910090026
 30
0.0
 11
-455.6625362619952284
 21
-211.2298213210088136
 31
0.0
  0
LINE
  5
BF2D
  8
DETAIL
  6
CONTINUOUS
 62
     5
 10
-451.0944676649959888
 20
-212.4594684990088069
 30
0.0
 11
-450.1797825219954916
 21
-212.7009161380092053
 31
0.0
  0
LINE
  5
BF2E
  8
DETAIL
  6
CONTINUOUS
 62
     5
 10
-456.5135442849958736
 20
-211.0042244690093867
 30
0.0
 11
-456.1083575269958033
 21
-211.1110297910090026
 31
0.0
  0
LINE
  5
BF2F
  8
DETAIL
  6
CONTINUOUS
 62
     5
 10
-450.1797825219954916
 20
-212.7009161380092053
 30
0.0
 11
-449.1887296309949988
 21
-212.9591605240094054
 31
0.0
  0
LINE
  5
BF30
  8
DETAIL
  6
CONTINUOUS
 62
     5
 10
-456.8805353429951879
 20
-210.908832929008895
 30
0.0
 11
-456.5135442849958736
 21
-211.0042244690093867
 31
0.0
  0
LINE
  5
BF31
  8
DETAIL
  6
CONTINUOUS
 62
     5
 10
-449.1887296309949988
 20
-212.9591605240094054
 30
0.0
 11
-448.1175983909952265
 21
-213.2338934600084031
 31
0.0
  0
LINE
  5
BF32
  8
DETAIL
  6
CONTINUOUS
 62
     5
 10
-457.2118210279958816
 20
-210.82421566200901
 30
0.0
 11
-456.8805353429951879
 21
-210.908832929008895
 31
0.0
  0
LINE
  5
BF33
  8
DETAIL
  6
CONTINUOUS
 62
     5
 10
-448.1175983909952265
 20
-213.2338934600084031
 30
0.0
 11
-446.962822841996001
 21
-213.5245529740087136
 31
0.0
  0
LINE
  5
BF34
  8
DETAIL
  6
CONTINUOUS
 62
     5
 10
-457.5100149229955946
 20
-210.7496742700095069
 30
0.0
 11
-457.2118210279958816
 21
-210.82421566200901
 31
0.0
  0
LINE
  5
BF35
  8
DETAIL
  6
CONTINUOUS
 62
     5
 10
-446.962822841996001
 20
-213.5245529740087136
 30
0.0
 11
-445.7211212139955023
 21
-213.830278300009013
 31
0.0
  0
LINE
  5
BF36
  8
DETAIL
  6
CONTINUOUS
 62
     5
 10
-428.1295527599958746
 20
-216.849708664009114
 30
0.0
 11
-430.6833746179954119
 21
-216.2269910280083138
 31
0.0
  0
LINE
  5
BF37
  8
DETAIL
  6
CONTINUOUS
 62
     5
 10
-457.7776727699956041
 20
-210.684495349009012
 30
0.0
 11
-457.5100149229955946
 21
-210.7496742700095069
 31
0.0
  0
LINE
  5
BF38
  8
DETAIL
  6
CONTINUOUS
 62
     5
 10
-445.7211212139955023
 20
-213.830278300009013
 30
0.0
 11
-444.3895999419955842
 21
-214.1498702660092022
 31
0.0
  0
LINE
  5
BF39
  8
DETAIL
  6
CONTINUOUS
 62
     5
 10
-458.0173027689961032
 20
-210.6279589380091863
 30
0.0
 11
-457.7776727699956041
 21
-210.684495349009012
 31
0.0
  0
LINE
  5
BF3A
  8
DETAIL
  6
CONTINUOUS
 62
     5
 10
-444.3895999419955842
 20
-214.1498702660092022
 30
0.0
 11
-442.9655543399957764
 21
-214.4818466140085889
 31
0.0
  0
LINE
  5
BF3B
  8
DETAIL
  6
CONTINUOUS
 62
     5
 10
-458.2315936049953962
 20
-210.5793084520092009
 30
0.0
 11
-458.0173027689961032
 21
-210.6279589380091863
 31
0.0
  0
LINE
  5
BF3C
  8
DETAIL
  6
CONTINUOUS
 62
     5
 10
-442.9655543399957764
 20
-214.4818466140085889
 30
0.0
 11
-441.5785217009952248
 21
-214.7951340760083099
 31
0.0
  0
LINE
  5
BF3D
  8
DETAIL
  6
CONTINUOUS
 62
     5
 10
-458.4232280979958887
 20
-210.5378001420085923
 30
0.0
 11
-458.2315936049953962
 21
-210.5793084520092009
 31
0.0
  0
LINE
  5
BF3E
  8
DETAIL
  6
CONTINUOUS
 62
     5
 10
-441.5785220859960987
 20
-214.7951338400089014
 30
0.0
 11
-437.2809944889958729
 21
-215.6825906860086093
 31
0.0
  0
LINE
  5
BF3F
  8
DETAIL
  6
CONTINUOUS
 62
     5
 10
-458.5946968299958826
 20
-210.5027624100094101
 30
0.0
 11
-458.4232280979958887
 21
-210.5378001420085923
 31
0.0
  0
LINE
  5
BF40
  8
DETAIL
  6
CONTINUOUS
 62
     5
 10
-458.7482805159961003
 20
-210.473620277009104
 30
0.0
 11
-458.5946968299958826
 21
-210.5027624100094101
 31
0.0
  0
LINE
  5
BF41
  8
DETAIL
  6
CONTINUOUS
 62
     5
 10
-437.2809944889958729
 20
-215.6825906860086093
 30
0.0
 11
-432.7690313479952238
 21
-216.4701927240093937
 31
0.0
  0
LINE
  5
BF42
  8
DETAIL
  6
CONTINUOUS
 62
     5
 10
-458.8857138469957135
 20
-210.4499543630089988
 30
0.0
 11
-458.7482805159961003
 21
-210.473620277009104
 31
0.0
  0
LINE
  5
BF43
  8
DETAIL
  6
CONTINUOUS
 62
     5
 10
-425.6945214569959717
 20
-217.2586993620080023
 30
0.0
 11
-428.1295527599958746
 21
-216.849708664009114
 31
0.0
  0
LINE
  5
BF44
  8
DETAIL
  6
CONTINUOUS
 62
     5
 10
-457.2674616319964116
 20
-184.4008117340090109
 30
0.0
 11
-457.691747075996318
 21
-184.3306777910092933
 31
0.0
  0
LINE
  5
BF45
  8
DETAIL
  6
CONTINUOUS
 62
     5
 10
-459.0083881189956969
 20
-210.4314420760092901
 30
0.0
 11
-458.8857138469957135
 21
-210.4499543630089988
 31
0.0
  0
LINE
  5
BF46
  8
DETAIL
  6
CONTINUOUS
 62
     5
 10
-432.7690313479952238
 20
-216.4701927240093937
 30
0.0
 11
-428.2062164649951228
 21
-217.1188070260085965
 31
0.0
  0
LINE
  5
BF5B
  8
DETAIL
  6
CONTINUOUS
 62
     5
 10
432.7745038829997952
 20
-3.5061949719911349
 30
0.0
 11
432.8274957639997069
 21
-3.6055011189910142
 31
0.0
  0
LINE
  5
BF5D
  8
DETAIL
  6
CONTINUOUS
 62
     5
 10
459.6282999090034878
 20
-187.8350213539906974
 30
0.0
 11
459.8525209760036887
 21
-188.2128109979902888
 31
0.0
  0
LINE
  5
BF5F
  8
DETAIL
  6
CONTINUOUS
 62
     5
 10
459.5417464620022088
 20
-106.2758943229909931
 30
0.0
 11
459.69991844100241
 21
-106.5226512399903953
 31
0.0
  0
LINE
  5
BF60
  8
DETAIL
  6
CONTINUOUS
 62
     5
 10
432.711927833000118
 20
-3.41319197399116
 30
0.0
 11
432.7745038829997952
 21
-3.5061949719911349
 31
0.0
  0
LINE
  5
BF64
  8
DETAIL
  6
CONTINUOUS
 62
     5
 10
459.3477298230035899
 20
-187.4888861869902996
 30
0.0
 11
459.6282999090034878
 21
-187.8350213539906974
 31
0.0
  0
LINE
  5
BF7B
  8
DETAIL
  6
CONTINUOUS
 62
     5
 10
-435.6165074699957245
 20
-214.4152688420080892
 30
0.0
 11
-437.9705335239959254
 21
-213.2347432220086034
 31
0.0
  0
LINE
  5
BF7E
  8
DETAIL
  6
CONTINUOUS
 62
     5
 10
-458.0973839079961181
 20
-184.2027300280086877
 30
0.0
 11
-458.4773020109960271
 21
-184.0208128270095926
 31
0.0
  0
LINE
  5
BF83
  8
DETAIL
  6
CONTINUOUS
 62
     5
 10
-433.1832757399960769
 20
-215.4141476150088863
 30
0.0
 11
-435.6165074699957245
 21
-214.4152688420080892
 31
0.0
  0
LINE
  5
C07C
  8
DETAIL
  6
CONTINUOUS
 62
     5
 10
432.6416546019999032
 20
-3.328856310990886
 30
0.0
 11
432.711927833000118
 21
-3.41319197399116
 31
0.0
  0
LINE
  5
C07D
  8
DETAIL
  6
CONTINUOUS
 62
     5
 10
459.3480781090020173
 20
-106.0530260999903049
 30
0.0
 11
459.5417464620022088
 21
-106.2758943229909931
 31
0.0
  0
LINE
  5
C081
  8
DETAIL
  6
CONTINUOUS
 62
     5
 10
432.546834196999896
 20
-3.2382711789905438
 30
0.0
 11
432.6416546019999032
 21
-3.328856310990886
 31
0.0
  0
LINE
  5
C082
  8
DETAIL
  6
CONTINUOUS
 62
     5
 10
459.0158002710031155
 20
-187.1835175399901061
 30
0.0
 11
459.3477298230035899
 21
-187.4888861869902996
 31
0.0
  0
LINE
  5
C084
  8
DETAIL
  6
CONTINUOUS
 62
     5
 10
459.1218377220021125
 20
-105.858240934990107
 30
0.0
 11
459.3480781090020173
 21
-106.0530260999903049
 31
0.0
  0
LINE
  5
C088
  8
DETAIL
  6
CONTINUOUS
 62
     5
 10
458.6390824250037781
 20
-186.9270200649897902
 30
0.0
 11
459.0158002710031155
 21
-187.1835175399901061
 31
0.0
  0
LINE
  5
C091
  8
DETAIL
  6
CONTINUOUS
 62
     5
 10
-430.6833746179954119
 20
-216.2269910280083138
 30
0.0
 11
-433.1832757399960769
 21
-215.4141476150088863
 31
0.0
  0
LINE
  5
C093
  8
DETAIL
  6
CONTINUOUS
 62
     5
 10
-457.691747075996318
 20
-184.3306777910092933
 30
0.0
 11
-458.0973839079961181
 21
-184.2027300280086877
 31
0.0
  0
LINE
  5
C2C7
  8
DETAIL
  6
CONTINUOUS
 62
     5
 10
432.4433132539998041
 20
-3.1615694009906292
 30
0.0
 11
432.546834196999896
 21
-3.2382711789905438
 31
0.0
  0
LINE
  5
C2C8
  8
DETAIL
  6
CONTINUOUS
 62
     5
 10
458.865895298002215
 20
-105.6954643559901967
 30
0.0
 11
459.1218377220021125
 21
-105.858240934990107
 31
0.0
  0
LINE
  5
C2C9
  8
DETAIL
  6
CONTINUOUS
 62
     5
 10
459.6801133970038222
 20
-210.4676278409907013
 30
0.0
 11
459.7527335740041963
 21
-210.5076359989907928
 31
0.0
  0
LINE
  5
C2CA
  8
DETAIL
  6
CONTINUOUS
 62
     5
 10
458.2266745050037002
 20
-186.7267359469896917
 30
0.0
 11
458.6390824250037781
 21
-186.9270200649897902
 31
0.0
  0
LINE
  5
C2CB
  8
DETAIL
  6
CONTINUOUS
 62
     5
 10
458.4617347430021255
 20
-105.5162731819901012
 30
0.0
 11
458.865895298002215
 21
-105.6954643559901967
 31
0.0
  0
LINE
  5
C2CC
  8
DETAIL
  6
CONTINUOUS
 62
     5
 10
459.571494219003398
 20
-210.4292468479906972
 30
0.0
 11
459.6801133970038222
 21
-210.4676278409907013
 31
0.0
  0
LINE
  5
C2CD
  8
DETAIL
  6
CONTINUOUS
 62
     5
 10
457.7894236270038846
 20
-186.5880031289906924
 30
0.0
 11
458.2266745050037002
 21
-186.7267359469896917
 31
0.0
  0
LINE
  5
C4B7
  8
DETAIL
  6
CONTINUOUS
 62
     5
 10
432.2959417539996139
 20
-3.082624472990573
 30
0.0
 11
432.4433132539998041
 21
-3.1615694009906292
 31
0.0
  0
LINE
  5
C4B8
  8
DETAIL
  6
CONTINUOUS
 62
     5
 10
432.1379530399998998
 20
-3.0293130549907801
 30
0.0
 11
432.2959417539996139
 21
-3.082624472990573
 31
0.0
  0
ARC
  5
C778
  8
DETAIL
  6
CONTINUOUS
 62
     5
 10
-408.8550360500075271
 20
372.7243127289912081
 30
0.0
 40
376.9998207479999905
 50
267.5003270373134114
 51
268.9458082419030802
  0
ARC
  5
C779
  8
DETAIL
  6
CONTINUOUS
 62
     5
 10
-409.9955445950063222
 20
310.74417333699148
 30
0.0
 40
315.0091793739999844
 50
268.9458082419030802
 51
270.0
  0
ARC
  5
C77A
  8
DETAIL
  6
CONTINUOUS
 62
     5
 10
-333.6770329179998953
 20
-1.5000001080061329
 30
0.0
 40
1.5
 50
21.8014094862985885
 51
90.0000016503823872
  0
ARC
  5
C77B
  8
DETAIL
  6
CONTINUOUS
 62
     5
 10
-322.322967134999999
 20
-1.500000242006535
 30
0.0
 40
1.5
 50
89.9999963158083034
 51
158.1985905135900907
  0
ARC
  5
C77C
  8
DETAIL
  6
CONTINUOUS
 62
     5
 10
-144.322967134999999
 20
-1.5000002420028971
 30
0.0
 40
1.5
 50
89.9999963158083034
 51
158.1985905135900907
  0
ARC
  5
C77D
  8
DETAIL
  6
CONTINUOUS
 62
     5
 10
-155.6770329609998953
 20
-1.500000000002728
 30
0.0
 40
1.5
 50
21.8014094864098702
 51
90.0
  0
ARC
  5
C77E
  8
DETAIL
  6
CONTINUOUS
 62
     5
 10
-330.9844505529999878
 20
-1.500000000006366
 30
0.0
 40
1.0
 50
201.8014094000943999
 51
269.2334493314995143
  0
ARC
  5
C77F
  8
DETAIL
  6
CONTINUOUS
 62
     5
 10
-325.0155494460004775
 20
-1.500000000006366
 30
0.0
 40
1.0
 50
270.7665506790796144
 51
338.1985906038802909
  0
ARC
  5
C780
  8
DETAIL
  6
CONTINUOUS
 62
     5
 10
-152.9844505569998887
 20
-1.500000000002728
 30
0.0
 40
1.0
 50
201.8014094864099093
 51
269.2334495614825869
  0
ARC
  5
C781
  8
DETAIL
  6
CONTINUOUS
 62
     5
 10
-147.0155494459995111
 20
-1.500000000002728
 30
0.0
 40
1.0
 50
270.7665506790796144
 51
338.1985906038802909
  0
ARC
  5
C782
  8
DETAIL
  6
CONTINUOUS
 62
     5
 10
-459.8645603869999263
 20
-13.4852504840091498
 30
0.0
 40
0.5
 50
112.6470975789945044
 51
189.4666842713133974
  0
ARC
  5
C783
  8
DETAIL
  6
CONTINUOUS
 62
     5
 10
-341.0
 20
-0.500000000007276
 30
0.0
 40
0.5
 50
90.0
 51
180.0
  0
ARC
  5
C784
  8
DETAIL
  6
CONTINUOUS
 62
     5
 10
-410.0523369669926979
 20
-338.3974871350083049
 30
0.0
 40
328.1955175379999901
 50
89.9908631068941958
 51
92.8152065535013264
  0
ARC
  5
C785
  8
DETAIL
  6
CONTINUOUS
 62
     5
 10
-409.9999999999981242
 20
-93.0000000000081855
 30
0.0
 40
130.3000000000000114
 50
247.6124366390712055
 51
269.9069443919108267
  0
ARC
  5
C786
  8
DETAIL
  6
CONTINUOUS
 62
     5
 10
-409.9999999999972147
 20
-133.0000000000082139
 30
0.0
 40
130.0
 50
103.9696574270203939
 51
112.6471250782197018
  0
ARC
  5
C787
  8
DETAIL
  6
CONTINUOUS
 62
     5
 10
-409.9999999999981242
 20
-93.0000000000081855
 30
0.0
 40
126.5
 50
249.4761280656250051
 51
250.0306772659274941
  0
ARC
  5
C788
  8
DETAIL
  6
CONTINUOUS
 62
     5
 10
-404.9999999169995135
 20
-38.0000000000081926
 30
0.0
 40
20.0000000010000001
 50
180.0000000152683128
 51
269.9999999979156087
  0
ARC
  5
C789
  8
DETAIL
  6
CONTINUOUS
 62
     5
 10
-384.999999917999105
 20
-38.0000000000072831
 30
0.0
 40
20.0
 50
270.0
 51
0.0
  0
ARC
  5
C78A
  8
DETAIL
  6
CONTINUOUS
 62
     5
 10
-457.8996840589978774
 20
-107.5115058530090977
 30
0.0
 40
2.0519299969999989
 50
154.2645328047155999
 51
157.2991000638324124
  0
ARC
  5
C78B
  8
DETAIL
  6
CONTINUOUS
 62
     5
 10
-457.9149090509981193
 20
-107.5053080470097058
 30
0.0
 40
2.0354925999999991
 50
157.294653677897287
 51
161.8557997292074049
  0
ARC
  5
C78C
  8
DETAIL
  6
CONTINUOUS
 62
     5
 10
-457.9208268779975128
 20
-107.5010046380093058
 30
0.0
 40
2.028324582999999
 50
148.6859487070150863
 51
154.2724143793128064
  0
ARC
  5
C78D
  8
DETAIL
  6
CONTINUOUS
 62
     5
 10
-457.9423566299984145
 20
-107.4888591860089946
 30
0.0
 40
2.0036303100000001
 50
139.5655085324638094
 51
146.5696925914234043
  0
ARC
  5
C78E
  8
DETAIL
  6
CONTINUOUS
 62
     5
 10
-457.9435399059975111
 20
-107.4879282020092006
 30
0.0
 40
2.0021258460000002
 50
138.8907691331230865
 51
139.5638249427242954
  0
ARC
  5
C78F
  8
DETAIL
  6
CONTINUOUS
 62
     5
 10
-457.9466351349983029
 20
-107.4948800670090066
 30
0.0
 40
2.0020966969999989
 50
161.8566482290156046
 51
165.7597094447679069
  0
ARC
  5
C790
  8
DETAIL
  6
CONTINUOUS
 62
     5
 10
-458.0230047829981004
 20
-98.502291223008811
 30
0.0
 40
1.997710531999999
 50
179.9211422461025904
 51
270.0
  0
ARC
  5
C791
  8
DETAIL
  6
CONTINUOUS
 62
     5
 10
-457.9475229939980068
 20
-107.4852127380089968
 30
0.0
 40
1.9973097870000001
 50
146.5753410317012992
 51
148.6749554880065887
  0
ARC
  5
C792
  8
DETAIL
  6
CONTINUOUS
 62
     5
 10
-457.9945192339973232
 20
-107.4828931860092069
 30
0.0
 40
1.9527353169999999
 50
165.7550028465649916
 51
170.6272596925670939
  0
ARC
  5
C793
  8
DETAIL
  6
CONTINUOUS
 62
     5
 10
-458.0310265809976045
 20
-107.4763644940094025
 30
0.0
 40
1.915652176
 50
170.6420968437938086
 51
173.5137207037757037
  0
ARC
  5
C794
  8
DETAIL
  6
CONTINUOUS
 62
     5
 10
-453.9999999999953957
 20
-210.5340376240091871
 30
0.0
 40
1.0
 50
180.0
 51
249.4761280656250051
  0
ARC
  5
C795
  8
DETAIL
  6
CONTINUOUS
 62
     5
 10
-357.874727691051703
 20
-76.5634989220898206
 30
0.0
 40
0.512520021368787
 50
181.2754235534283112
 51
269.4845112923820238
  0
ARC
  5
C796
  8
DETAIL
  6
CONTINUOUS
 62
     5
 10
-345.9250482886745885
 20
-76.5634989203281293
 30
0.0
 40
0.5125200231369178
 50
270.5154887870892821
 51
358.7245762539766929
  0
ARC
  5
C797
  8
DETAIL
  6
CONTINUOUS
 62
     5
 10
-459.4368851299959147
 20
-213.0168087760094124
 30
0.0
 40
0.5
 50
181.4999999999897966
 51
247.6124366390712055
  0
ARC
  5
C798
  8
DETAIL
  6
CONTINUOUS
 62
     5
 10
398.426806754991901
 20
372.7243127290084885
 30
0.0
 40
376.9998207479999905
 50
271.0541917580969198
 51
272.4996729626865886
  0
ARC
  5
C799
  8
DETAIL
  6
CONTINUOUS
 62
     5
 10
399.5673152999934246
 20
310.7441733370088173
 30
0.0
 40
315.0091793739999844
 50
270.0
 51
271.0541917580969198
  0
ARC
  5
C79A
  8
DETAIL
  6
CONTINUOUS
 62
     5
 10
144.322967134999999
 20
-1.500000241996531
 30
0.0
 40
1.5
 50
21.8014094864098702
 51
90.0000036841916824
  0
ARC
  5
C79B
  8
DETAIL
  6
CONTINUOUS
 62
     5
 10
155.677032962000311
 20
-1.499999999996362
 30
0.0
 40
1.5
 50
90.0
 51
158.1985905135900907
  0
ARC
  5
C79C
  8
DETAIL
  6
CONTINUOUS
 62
     5
 10
322.322967134999999
 20
-1.5000002419928931
 30
0.0
 40
1.5
 50
21.8014094864098702
 51
90.0000036841916824
  0
ARC
  5
C79D
  8
DETAIL
  6
CONTINUOUS
 62
     5
 10
333.6770329189993731
 20
-1.5000001079934
 30
0.0
 40
1.5
 50
89.9999983496175986
 51
158.1985905135900907
  0
ARC
  5
C79E
  8
DETAIL
  6
CONTINUOUS
 62
     5
 10
152.9844505580003897
 20
-1.499999999996362
 30
0.0
 40
1.0
 50
270.7665504385174131
 51
338.1985905135902044
  0
ARC
  5
C79F
  8
DETAIL
  6
CONTINUOUS
 62
     5
 10
147.0155494470000122
 20
-1.499999999996362
 30
0.0
 40
1.0
 50
201.8014093961197091
 51
269.2334493209202719
  0
ARC
  5
C7A0
  8
DETAIL
  6
CONTINUOUS
 62
     5
 10
325.0155494470000122
 20
-1.499999999992724
 30
0.0
 40
1.0
 50
201.8014093961197091
 51
269.2334493209202719
  0
ARC
  5
C7A1
  8
DETAIL
  6
CONTINUOUS
 62
     5
 10
330.9844505539995225
 20
-1.499999999992724
 30
0.0
 40
1.0
 50
270.7665506685004857
 51
338.1985905999055717
  0
ARC
  5
C7A2
  8
DETAIL
  6
CONTINUOUS
 62
     5
 10
341.0
 20
-0.4999999999927241
 30
0.0
 40
0.5
 50
0.0
 51
90.0
  0
ARC
  5
C7A3
  8
DETAIL
  6
CONTINUOUS
 62
     5
 10
459.8645604599997228
 20
-13.4852500519900804
 30
0.0
 40
0.5
 50
350.5332654899875138
 51
67.352890965776524
  0
ARC
  5
C7A4
  8
DETAIL
  6
CONTINUOUS
 62
     5
 10
410.001316025007327
 20
-346.9526462439916941
 30
0.0
 40
336.7506724760000907
 50
89.4508150711032783
 51
90.0002239125086447
  0
ARC
  5
C7A5
  8
DETAIL
  6
CONTINUOUS
 62
     5
 10
410.000000000001819
 20
-92.9999999999909051
 30
0.0
 40
130.3000000000000114
 50
270.0932139073851204
 51
292.3875633609288229
  0
ARC
  5
C7A6
  8
DETAIL
  6
CONTINUOUS
 62
     5
 10
410.0000000000026716
 20
-132.9999999999909051
 30
0.0
 40
130.0
 50
67.3528749217802556
 51
80.9792222607966892
  0
ARC
  5
C7A7
  8
DETAIL
  6
CONTINUOUS
 62
     5
 10
410.000000000001819
 20
-92.9999999999909051
 30
0.0
 40
126.5
 50
289.9699896821865082
 51
290.5238719343748812
  0
ARC
  5
C7A8
  8
DETAIL
  6
CONTINUOUS
 62
     5
 10
375.000000082000895
 20
-37.9999999999918217
 30
0.0
 40
20.0
 50
180.0
 51
270.0
  0
ARC
  5
C7A9
  8
DETAIL
  6
CONTINUOUS
 62
     5
 10
395.0000000820010086
 20
-37.9999999999918217
 30
0.0
 40
20.0
 50
270.0
 51
359.9999999997914983
  0
ARC
  5
C7AA
  8
DETAIL
  6
CONTINUOUS
 62
     5
 10
457.9002830990020243
 20
-107.5112693079900055
 30
0.0
 40
2.051298271999999
 50
22.9728152639361198
 51
26.0049016872834713
  0
ARC
  5
C7AB
  8
DETAIL
  6
CONTINUOUS
 62
     5
 10
457.913301278002109
 20
-107.5059077779897052
 30
0.0
 40
2.037219992999999
 50
18.5364395516334817
 51
22.9768824631216013
  0
ARC
  5
C7AC
  8
DETAIL
  6
CONTINUOUS
 62
     5
 10
457.9229187050023029
 20
-107.4999148809902039
 30
0.0
 40
2.0259760660000001
 50
25.9969738363115894
 51
31.5289551489826607
  0
ARC
  5
C7AD
  8
DETAIL
  6
CONTINUOUS
 62
     5
 10
457.9427426770025136
 20
-107.4960270469900934
 30
0.0
 40
2.0061648039999991
 50
14.6620827448122206
 51
18.5361971508919794
  0
ARC
  5
C7AE
  8
DETAIL
  6
CONTINUOUS
 62
     5
 10
457.9443519170026207
 20
-107.487681263990396
 30
0.0
 40
2.0013188550000001
 50
33.5866845859299517
 51
41.1458000717200676
  0
ARC
  5
C7AF
  8
DETAIL
  6
CONTINUOUS
 62
     5
 10
458.0178430053384204
 20
-98.4898665415739742
 30
0.0
 40
2.0101486289450179
 50
270.2225966519010854
 51
359.6589021682186171
  0
ARC
  5
C7B0
  8
DETAIL
  6
CONTINUOUS
 62
     5
 10
457.9497631450021231
 20
-107.4839081809904968
 30
0.0
 40
1.9947241749999991
 50
31.5402728369462402
 51
33.5808585984888097
  0
ARC
  5
C7B1
  8
DETAIL
  6
CONTINUOUS
 62
     5
 10
457.9911909940018973
 20
-107.4835362409903041
 30
0.0
 40
1.9561325469999991
 50
9.7580041543005862
 51
14.6673280796784198
  0
ARC
  5
C7B2
  8
DETAIL
  6
CONTINUOUS
 62
     5
 10
458.0286615620025259
 20
-107.4765581769897977
 30
0.0
 40
1.9180214689999999
 50
6.4818551363157582
 51
9.7422815349040146
  0
ARC
  5
C7B3
  8
DETAIL
  6
CONTINUOUS
 62
     5
 10
454.0000000000044906
 20
-210.5340376239909972
 30
0.0
 40
1.0
 50
290.5238719343337834
 51
0.0
  0
ARC
  5
C7B4
  8
DETAIL
  6
CONTINUOUS
 62
     5
 10
275.525160299676827
 20
-76.5634989203153964
 30
0.0
 40
0.5125200231368444
 50
181.2754237460231934
 51
269.4845112127543985
  0
ARC
  5
C7B5
  8
DETAIL
  6
CONTINUOUS
 62
     5
 10
287.4748397020558173
 20
-76.5634989220770876
 30
0.0
 40
0.5125200213683784
 50
270.5154887072532119
 51
358.7245764466237006
  0
ARC
  5
C7B6
  8
DETAIL
  6
CONTINUOUS
 62
     5
 10
-41.1747276910518778
 20
-76.5634989220834541
 30
0.0
 40
0.5125200213687819
 50
181.2754235534283112
 51
269.4845112924340924
  0
ARC
  5
C7B7
  8
DETAIL
  6
CONTINUOUS
 62
     5
 10
-29.225048288673861
 20
-76.5634989203226723
 30
0.0
 40
0.5125200231360464
 50
270.5154887870372136
 51
358.7245762540808869
  0
ARC
  5
C7B8
  8
DETAIL
  6
CONTINUOUS
 62
     5
 10
459.436885131003578
 20
-213.0168087729907995
 30
0.0
 40
0.5
 50
292.3875632429694065
 51
358.4999996946963279
  0
LINE
  5
D24A
  8
OUTLINE
  6
CONTINUOUS
 62
     3
 10
-443.8055631290117162
 20
-3.5614278550256131
 30
0.0
 11
-443.7379759140112014
 21
-3.44944921602655
 31
0.0
  0
LINE
  5
D24B
  8
OUTLINE
  6
CONTINUOUS
 62
     3
 10
-443.9504214480111841
 20
-4.136516708025737
 30
0.0
 11
-443.9385856610114161
 21
-4.0183479470260863
 31
0.0
  0
LINE
  5
D24C
  8
OUTLINE
  6
CONTINUOUS
 62
     3
 10
-459.988653090011212
 20
-107.7737334410267067
 30
0.0
 11
-459.9805150282589921
 21
-107.6637925002577987
 31
0.0
  0
LINE
  5
D24D
  8
OUTLINE
  6
CONTINUOUS
 62
     3
 10
-443.9602194880098978
 20
-4.2776535220255019
 30
0.0
 11
-443.9504214480111841
 21
-4.136516708025737
 31
0.0
  0
LINE
  5
D24E
  8
OUTLINE
  6
CONTINUOUS
 62
     3
 10
-443.9682828560107168
 20
-4.4475340910266823
 30
0.0
 11
-443.9602194880098978
 21
-4.2776535220255019
 31
0.0
  0
LINE
  5
D24F
  8
OUTLINE
  6
CONTINUOUS
 62
     3
 10
-460.0921067010111756
 20
-188.8842772470260911
 30
0.0
 11
-460.0922088610112723
 21
-188.8875709400263077
 31
0.0
  0
LINE
  5
D250
  8
OUTLINE
  6
CONTINUOUS
 62
     3
 10
-443.9743118070110199
 20
-4.6489202020256917
 30
0.0
 11
-443.9682828560107168
 21
-4.4475340910266823
 31
0.0
  0
LINE
  5
D251
  8
OUTLINE
  6
CONTINUOUS
 62
     3
 10
-459.9909305760119764
 20
-107.8664452750253986
 30
0.0
 11
-459.988653090011212
 21
-107.7737334410267067
 31
0.0
  0
LINE
  5
D252
  8
OUTLINE
  6
CONTINUOUS
 62
     3
 10
-443.9776976790108165
 20
-4.8788603210268766
 30
0.0
 11
-443.9743118070110199
 21
-4.6489202020256917
 31
0.0
  0
LINE
  5
D25A
  8
OUTLINE
  6
CONTINUOUS
 62
     3
 10
-460.0129359940110021
 20
-32.8759298360264509
 30
0.0
 11
-460.0207325470108799
 21
-66.864559880026718
 31
0.0
  0
LINE
  5
D25B
  8
OUTLINE
  6
CONTINUOUS
 62
     3
 10
-443.9782444049669721
 20
-7.5190097777740439
 30
0.0
 11
-443.9776976790108165
 21
-4.8788603210268766
 31
0.0
  0
LINE
  5
D25C
  8
OUTLINE
  6
CONTINUOUS
 62
     3
 10
-460.020732579010712
 20
-66.8645606980262528
 30
0.0
 11
-460.020732579010712
 21
-98.4996562920259748
 31
0.0
  0
LINE
  5
D25D
  8
OUTLINE
  6
CONTINUOUS
 62
     3
 10
-459.9911984840109085
 20
-157.1474242710264093
 30
0.0
 11
-459.9909305760119764
 21
-107.8664452750253986
 31
0.0
  0
LINE
  5
D25F
  8
OUTLINE
  6
CONTINUOUS
 62
     3
 10
-459.9798563290113975
 20
-107.6580211058207937
 30
0.0
 11
-459.9798563290113975
 21
-98.9042606205948687
 31
0.0
  0
LINE
  5
D260
  8
OUTLINE
  6
CONTINUOUS
 62
     3
 10
-459.9798328880114013
 20
-181.4389606120257952
 30
0.0
 11
-459.9798559016452941
 21
-157.5903583705058111
 31
0.0
  0
LINE
  5
D263
  8
OUTLINE
  6
CONTINUOUS
 62
     3
 10
-459.9815272430113851
 20
-211.2698181080259019
 30
0.0
 11
-460.008334805010179
 21
-202.7640557790263927
 31
0.0
  0
LINE
  5
D264
  8
OUTLINE
  6
CONTINUOUS
 62
     3
 10
-460.008334805010179
 20
-202.7640557790263927
 30
0.0
 11
-460.021726558010414
 21
-199.2352742780257984
 31
0.0
  0
LINE
  5
D26E
  8
OUTLINE
  6
CONTINUOUS
 62
     3
 10
-460.021726558010414
 20
-199.2352742780257984
 30
0.0
 11
-460.0306141510117754
 21
-197.2958238220261933
 31
0.0
  0
LINE
  5
D26F
  8
OUTLINE
  6
CONTINUOUS
 62
     3
 10
-460.0306141510117754
 20
-197.2958238220261933
 30
0.0
 11
-460.0415695990122913
 21
-195.2580612600258974
 31
0.0
  0
LINE
  5
D270
  8
OUTLINE
  6
CONTINUOUS
 62
     3
 10
-460.0415695990122913
 20
-195.2580612600258974
 30
0.0
 11
-460.0551481710098756
 21
-193.1389041990260012
 31
0.0
  0
LINE
  5
D271
  8
OUTLINE
  6
CONTINUOUS
 62
     3
 10
-460.0551481710098756
 20
-193.1389041990260012
 30
0.0
 11
-460.0722035280123237
 21
-190.9557117290260067
 31
0.0
  0
LINE
  5
D272
  8
OUTLINE
  6
CONTINUOUS
 62
     3
 10
-460.0722035280123237
 20
-190.9557117290260067
 30
0.0
 11
-460.0922087640100813
 21
-188.8875705000264134
 31
0.0
  0
LINE
  5
D273
  8
OUTLINE
  6
CONTINUOUS
 62
     3
 10
-459.9801249762239763
 20
-211.3769574561393085
 30
0.0
 11
-459.9815272430113851
 21
-211.2698181080259019
 31
0.0
  0
LINE
  5
D274
  8
OUTLINE
  6
CONTINUOUS
 62
     3
 10
-459.9798559016452941
 20
-157.5903583704975972
 30
0.0
 11
-459.9908530780120941
 21
-157.1474503820263067
 31
0.0
  0
LINE
  5
D275
  8
OUTLINE
  6
CONTINUOUS
 62
     3
 10
-459.9801249762239763
 20
-211.3769574561574984
 30
0.0
 11
-459.9367137930112222
 21
-213.0298972500258969
 31
0.0
  0
LINE
  5
D27A
  8
OUTLINE
  6
CONTINUOUS
 62
     3
 10
-443.557944784011795
 20
-3.2477521670261922
 30
0.0
 11
-443.4489320240099914
 21
-3.1652352060264088
 31
0.0
  0
LINE
  5
D27B
  8
OUTLINE
  6
CONTINUOUS
 62
     3
 10
-459.3567767490112033
 20
-187.4983870440264013
 30
0.0
 11
-459.0262549030121022
 21
-187.1916692930263082
 31
0.0
  0
LINE
  5
D27C
  8
OUTLINE
  6
CONTINUOUS
 62
     3
 10
-443.6582461320103903
 20
-3.347249527026178
 30
0.0
 11
-443.557944784011795
 21
-3.2477521670261922
 31
0.0
  0
LINE
  5
D27D
  8
OUTLINE
  6
CONTINUOUS
 62
     3
 10
-459.6357938290111065
 20
-187.8456689500262939
 30
0.0
 11
-459.3567767490112033
 21
-187.4983870440264013
 31
0.0
  0
LINE
  5
D27E
  8
OUTLINE
  6
CONTINUOUS
 62
     3
 10
-443.7379759140112014
 20
-3.44944921602655
 30
0.0
 11
-443.6582461320103903
 21
-3.347249527026178
 31
0.0
  0
LINE
  5
D27F
  8
OUTLINE
  6
CONTINUOUS
 62
     3
 10
-459.8583631250111807
 20
-188.2244191270264935
 30
0.0
 11
-459.6357938290111065
 21
-187.8456689500262939
 31
0.0
  0
LINE
  5
D280
  8
OUTLINE
  6
CONTINUOUS
 62
     3
 10
-443.8593059180111027
 20
-3.6800261390262672
 30
0.0
 11
-443.8055631290117162
 21
-3.5614278550256131
 31
0.0
  0
LINE
  5
D281
  8
OUTLINE
  6
CONTINUOUS
 62
     3
 10
-460.0212495560116963
 20
-188.6246384850255993
 30
0.0
 11
-459.8583631250111807
 21
-188.2244191270264935
 31
0.0
  0
LINE
  5
D282
  8
OUTLINE
  6
CONTINUOUS
 62
     3
 10
-324.0870727510118741
 20
-1.8713906770262829
 30
0.0
 11
-323.715682171010485
 21
-0.9429142270255397
 31
0.0
  0
LINE
  5
D283
  8
OUTLINE
  6
CONTINUOUS
 62
     3
 10
-443.897682212011091
 20
-3.79799948202617
 30
0.0
 11
-443.8593059180111027
 21
-3.6800261390262672
 31
0.0
  0
LINE
  5
D284
  8
OUTLINE
  6
CONTINUOUS
 62
     3
 10
-460.0908127210112752
 20
-188.8753594560257056
 30
0.0
 11
-460.0212495560116963
 21
-188.6246384850255993
 31
0.0
  0
LINE
  5
D285
  8
OUTLINE
  6
CONTINUOUS
 62
     3
 10
-443.9226310780103972
 20
-3.9103289130262051
 30
0.0
 11
-443.897682212011091
 21
-3.79799948202617
 31
0.0
  0
LINE
  5
D286
  8
OUTLINE
  6
CONTINUOUS
 62
     3
 10
-443.9385856610114161
 20
-4.0183479470260863
 30
0.0
 11
-443.9226310780103972
 21
-3.9103289130262051
 31
0.0
  0
LINE
  5
D287
  8
OUTLINE
  6
CONTINUOUS
 62
     3
 10
-460.0921056130101192
 20
-188.8842774750264937
 30
0.0
 11
-460.0908131820106064
 21
-188.875361449026002
 31
0.0
  0
LINE
  5
D288
  8
OUTLINE
  6
CONTINUOUS
 62
     3
 10
-459.9805150282609247
 20
-107.6637925002706027
 30
0.0
 11
-459.9798563290113975
 21
-107.6580211058244032
 31
0.0
  0
LINE
  5
D28B
  8
OUTLINE
  6
CONTINUOUS
 62
     3
 10
-341.5000000000109139
 20
-4.2650060050264074
 30
0.0
 11
-341.5000000000109139
 21
-0.5000000000263753
 31
0.0
  0
LINE
  5
D28D
  8
OUTLINE
  6
CONTINUOUS
 62
     3
 10
-459.9687902160112003
 20
-181.6952695740264971
 30
0.0
 11
-459.9798255670102094
 21
-181.4389610280258864
 31
0.0
  0
LINE
  5
D297
  8
OUTLINE
  6
CONTINUOUS
 62
     3
 10
-459.9061391090107804
 20
-182.0973851670260046
 30
0.0
 11
-459.9687902160112003
 21
-181.6952695740264971
 31
0.0
  0
LINE
  5
D298
  8
OUTLINE
  6
CONTINUOUS
 62
     3
 10
-460.3577510900104244
 20
-13.56748752602652
 30
0.0
 11
-460.0723380770103859
 21
-15.2791397820264994
 31
0.0
  0
LINE
  5
D299
  8
OUTLINE
  6
CONTINUOUS
 62
     3
 10
-456.3257321671171098
 20
-186.500000000025409
 30
0.0
 11
-456.810706494470594
 21
-184.4139329330263877
 31
0.0
  0
LINE
  5
D29A
  8
OUTLINE
  6
CONTINUOUS
 62
     3
 10
-443.3049398840120716
 20
-3.086583126026198
 30
0.0
 11
-443.1489834720122758
 21
-3.0321115900260329
 31
0.0
  0
LINE
  5
D29B
  8
OUTLINE
  6
CONTINUOUS
 62
     3
 10
-443.4489320240099914
 20
-3.1652352060264088
 30
0.0
 11
-443.3049398840120716
 21
-3.086583126026198
 31
0.0
  0
LINE
  5
D29C
  8
OUTLINE
  6
CONTINUOUS
 62
     3
 10
-459.0262549030121022
 20
-187.1916692930263082
 30
0.0
 11
-458.6507427060113855
 21
-186.9336257340264922
 31
0.0
  0
LINE
  5
D29D
  8
OUTLINE
  6
CONTINUOUS
 62
     3
 10
-146.0870727510117888
 20
-1.8713906770262829
 30
0.0
 11
-145.7156821710105135
 21
-0.9429142270255397
 31
0.0
  0
LINE
  5
D2A0
  8
OUTLINE
  6
CONTINUOUS
 62
     3
 10
-459.7892407410108717
 20
-182.4867997080255009
 30
0.0
 11
-459.9061391090107804
 21
-182.0973851670260046
 31
0.0
  0
LINE
  5
D2A2
  8
OUTLINE
  6
CONTINUOUS
 62
     3
 10
-459.6198924880118284
 20
-182.8570503820265003
 30
0.0
 11
-459.7892407410108717
 21
-182.4867997080255009
 31
0.0
  0
LINE
  5
D2A8
  8
OUTLINE
  6
CONTINUOUS
 62
     3
 10
-443.1489834720122758
 20
-3.0321115900260329
 30
0.0
 11
-442.9759421180115169
 21
-3.0030898800259811
 31
0.0
  0
LINE
  5
D2A9
  8
OUTLINE
  6
CONTINUOUS
 62
     3
 10
-458.2392808740113992
 20
-186.7316381350264862
 30
0.0
 11
-457.8026896060109721
 21
-186.591102570026095
 31
0.0
  0
LINE
  5
D2AA
  8
OUTLINE
  6
CONTINUOUS
 62
     3
 10
-458.6507427060113855
 20
-186.9336257340264922
 30
0.0
 11
-458.2392808740113992
 21
-186.7316381350264862
 31
0.0
  0
LINE
  5
D2AB
  8
OUTLINE
  6
CONTINUOUS
 62
     3
 10
153.9129272489880975
 20
-1.8713906770262829
 30
0.0
 11
154.2843179249884997
 21
-0.9429139860258146
 31
0.0
  0
LINE
  5
D2AD
  8
OUTLINE
  6
CONTINUOUS
 62
     3
 10
-331.9129272480112718
 20
-1.8713906770262829
 30
0.0
 11
-332.2843178820111802
 21
-0.9429140940264915
 31
0.0
  0
LINE
  5
D2B0
  8
OUTLINE
  6
CONTINUOUS
 62
     3
 10
-459.4005655380113922
 20
-183.2016857290263943
 30
0.0
 11
-459.6198924880118284
 21
-182.8570503820265003
 31
0.0
  0
LINE
  5
D2B1
  8
OUTLINE
  6
CONTINUOUS
 62
     3
 10
-333.6770329610117187
 20
-0.0000000000263753
 30
0.0
 11
-341.0000000000109139
 21
-0.0000000000263753
 31
0.0
  0
LINE
  5
D2B2
  8
OUTLINE
  6
CONTINUOUS
 62
     3
 10
-322.322967038011484
 20
-0.0000000000263753
 30
0.0
 11
-155.6770329610116903
 21
-0.0000000000263753
 31
0.0
  0
LINE
  5
D2B3
  8
OUTLINE
  6
CONTINUOUS
 62
     3
 10
-144.3229670380115124
 20
-0.0000000000263753
 30
0.0
 11
144.322967038988196
 21
-0.0000000000263753
 31
0.0
  0
LINE
  5
D2B4
  8
OUTLINE
  6
CONTINUOUS
 62
     3
 10
155.6770329619884876
 20
-0.0000000000263753
 30
0.0
 11
322.3229670389882813
 21
-0.0000000000263753
 31
0.0
  0
LINE
  5
D2B5
  8
OUTLINE
  6
CONTINUOUS
 62
     3
 10
333.677032961988516
 20
-0.0000000000263753
 30
0.0
 11
340.9999999999890861
 21
-0.0000000000263753
 31
0.0
  0
LINE
  5
D2C5
  8
OUTLINE
  6
CONTINUOUS
 62
     3
 10
-442.9759421180115169
 20
-3.0030898800259811
 30
0.0
 11
-442.897162857010585
 21
-2.9999924200265009
 31
0.0
  0
LINE
  5
D2D2
  8
OUTLINE
  6
CONTINUOUS
 62
     3
 10
-457.8026896060109721
 20
-186.591102570026095
 30
0.0
 11
-457.3527695300107894
 21
-186.5148735050260882
 31
0.0
  0
LINE
  5
D2D3
  8
OUTLINE
  6
CONTINUOUS
 62
     3
 10
432.9775098849895016
 20
-5.0000000000263753
 30
0.0
 11
432.9781551299893181
 21
-4.9997698740262422
 31
0.0
  0
LINE
  5
D2D4
  8
OUTLINE
  6
CONTINUOUS
 62
     3
 10
458.8353687009876012
 20
-183.7814932590262913
 30
0.0
 11
458.4887227979888848
 21
-184.0142859150263916
 31
0.0
  0
LINE
  5
D2D5
  8
OUTLINE
  6
CONTINUOUS
 62
     3
 10
459.1435747189897825
 20
-183.5050359630257901
 30
0.0
 11
458.8353687009876012
 21
-183.7814932590262913
 31
0.0
  0
LINE
  5
D2D7
  8
OUTLINE
  6
CONTINUOUS
 62
     3
 10
331.9129272489881259
 20
-1.8713906770262829
 30
0.0
 11
332.2843178819894092
 21
-0.9429140940264915
 31
0.0
  0
LINE
  5
D2D9
  8
OUTLINE
  6
CONTINUOUS
 62
     3
 10
341.4999999999890861
 20
-4.2650060050264074
 30
0.0
 11
341.4999999999890861
 21
-0.5000000000263753
 31
0.0
  0
LINE
  5
D2E0
  8
OUTLINE
  6
CONTINUOUS
 62
     3
 10
-153.9129272480113002
 20
-1.8713906770262829
 30
0.0
 11
-154.2843179250102992
 21
-0.9429139860258146
 31
0.0
  0
LINE
  5
D2E1
  8
OUTLINE
  6
CONTINUOUS
 62
     3
 10
-459.1343446110112723
 20
-183.5145145710266092
 30
0.0
 11
-459.4005655380113922
 21
-183.2016857290263943
 31
0.0
  0
LINE
  5
D2E2
  8
OUTLINE
  6
CONTINUOUS
 62
     3
 10
431.965057644989372
 20
-3.0022995730259932
 30
0.0
 11
432.1379530399898954
 21
-3.0293130550262499
 31
0.0
  0
LINE
  5
D2FE
  8
OUTLINE
  6
CONTINUOUS
 62
     3
 10
431.8972137439885728
 20
-3.0000031850258888
 30
0.0
 11
431.965057644989372
 21
-3.0022995730259932
 31
0.0
  0
LINE
  5
D2FF
  8
OUTLINE
  6
CONTINUOUS
 62
     3
 10
-456.810706495010777
 20
-184.4139329330263877
 30
0.0
 11
-456.9862628800109974
 21
-184.4138948480267004
 31
0.0
  0
LINE
  5
D300
  8
OUTLINE
  6
CONTINUOUS
 62
     3
 10
330.9978541229883717
 20
-2.5000000000263749
 30
0.0
 11
325.0021458779884256
 21
-2.5000000000263749
 31
0.0
  0
LINE
  5
D301
  8
OUTLINE
  6
CONTINUOUS
 62
     3
 10
152.9978541229884001
 20
-2.5000000000263749
 30
0.0
 11
147.0021458779883119
 21
-2.5000000000263749
 31
0.0
  0
LINE
  5
D302
  8
OUTLINE
  6
CONTINUOUS
 62
     3
 10
-147.0021458770114862
 20
-2.5000000000263749
 30
0.0
 11
-152.9978541220116028
 21
-2.5000000000263749
 31
0.0
  0
LINE
  5
D303
  8
OUTLINE
  6
CONTINUOUS
 62
     3
 10
-325.0021458770116283
 20
-2.5000000000263749
 30
0.0
 11
-330.9978541220115744
 21
-2.5000000000263749
 31
0.0
  0
LINE
  5
D304
  8
OUTLINE
  6
CONTINUOUS
 62
     3
 10
-442.8972429600107148
 20
-3.0000000000263749
 30
0.0
 11
-435.8494104440105161
 21
-3.0000000000263749
 31
0.0
  0
LINE
  5
D305
  8
OUTLINE
  6
CONTINUOUS
 62
     3
 10
425.4211811489893762
 20
-3.0000000000263749
 30
0.0
 11
431.8972429609892743
 21
-3.0000000000263749
 31
0.0
  0
LINE
  5
D306
  8
OUTLINE
  6
CONTINUOUS
 62
     3
 10
-409.9955445950108128
 20
-4.2650060050264074
 30
0.0
 11
-341.5000000000109139
 21
-4.2650060050264074
 31
0.0
  0
LINE
  5
D307
  8
OUTLINE
  6
CONTINUOUS
 62
     3
 10
341.4999999999873239
 20
-4.2650060050264074
 30
0.0
 11
399.5673152999880244
 21
-4.2650060050264074
 31
0.0
  0
LINE
  5
D308
  8
OUTLINE
  6
CONTINUOUS
 62
     3
 10
-457.0453262864775184
 20
-186.5000059942786095
 30
0.0
 11
-456.3257321670116085
 21
-186.5000000000264038
 31
0.0
  0
LINE
  5
D309
  8
OUTLINE
  6
CONTINUOUS
 62
     3
 10
456.3259190739881888
 20
-186.5000000000264038
 30
0.0
 11
457.0438789909895263
 21
-186.5000000000264038
 31
0.0
  0
LINE
  5
D30A
  8
OUTLINE
  6
CONTINUOUS
 62
     3
 10
456.9862626639878727
 20
-184.4138948580257136
 30
0.0
 11
456.8106617779886278
 21
-184.4139329610260916
 31
0.0
  0
LINE
  5
D30B
  8
OUTLINE
  6
CONTINUOUS
 62
     3
 10
-457.3527695300107894
 20
-186.5148735050260882
 30
0.0
 11
-457.0453262864775184
 21
-186.5000059942786095
 31
0.0
  0
LINE
  5
D30C
  8
OUTLINE
  6
CONTINUOUS
 62
     3
 10
457.2803346459876934
 20
-184.3995859590258988
 30
0.0
 11
456.9862726339887899
 21
-184.4138905110266933
 31
0.0
  0
LINE
  5
D30D
  8
OUTLINE
  6
CONTINUOUS
 62
     3
 10
457.7044232669886128
 20
-184.3276143500260957
 30
0.0
 11
457.2803346459876934
 21
-184.3995859590258988
 31
0.0
  0
LINE
  5
D30E
  8
OUTLINE
  6
CONTINUOUS
 62
     3
 10
458.1095673039889107
 20
-184.197885316026202
 30
0.0
 11
457.7044232669886128
 21
-184.3276143500260957
 31
0.0
  0
LINE
  5
D30F
  8
OUTLINE
  6
CONTINUOUS
 62
     3
 10
458.4887227979888848
 20
-184.0142859150263916
 30
0.0
 11
458.1095673039889107
 21
-184.197885316026202
 31
0.0
  0
LINE
  5
D310
  8
OUTLINE
  6
CONTINUOUS
 62
     3
 10
459.4084319019892746
 20
-183.1909754400257953
 30
0.0
 11
459.1435747189897825
 21
-183.5050359630257901
 31
0.0
  0
LINE
  5
D312
  8
OUTLINE
  6
CONTINUOUS
 62
     3
 10
459.626244555987796
 20
-182.8452969390255021
 30
0.0
 11
459.4084319019892746
 21
-183.1909754400257953
 31
0.0
  0
LINE
  5
D313
  8
OUTLINE
  6
CONTINUOUS
 62
     3
 10
459.7939492649892941
 20
-182.4742118210259889
 30
0.0
 11
459.626244555987796
 21
-182.8452969390255021
 31
0.0
  0
LINE
  5
D315
  8
OUTLINE
  6
CONTINUOUS
 62
     3
 10
459.9090996989888822
 20
-182.0841954130264071
 30
0.0
 11
459.7939492649892941
 21
-182.4742118210259889
 31
0.0
  0
LINE
  5
D316
  8
OUTLINE
  6
CONTINUOUS
 62
     3
 10
456.8106617777665974
 20
-184.4139329610260916
 30
0.0
 11
456.3259190740936901
 21
-186.5000000000264038
 31
0.0
  0
LINE
  5
D317
  8
OUTLINE
  6
CONTINUOUS
 62
     3
 10
460.3577510909889838
 20
-13.56748752602652
 30
0.0
 11
460.0723380779891158
 21
-15.2791397820264994
 31
0.0
  0
LINE
  5
D326
  8
OUTLINE
  6
CONTINUOUS
 62
     3
 10
459.9699289509881055
 20
-181.6817116650263131
 30
0.0
 11
459.9090996989888822
 21
-182.0841954130264071
 31
0.0
  0
LINE
  5
D328
  8
OUTLINE
  6
CONTINUOUS
 62
     3
 10
459.9798255619897986
 20
-181.4389610240268951
 30
0.0
 11
459.9699289509881055
 21
-181.6817116650263131
 31
0.0
  0
LINE
  5
D329
  8
OUTLINE
  6
CONTINUOUS
 62
     3
 10
460.058450627988293
 20
-15.5033169390262593
 30
0.0
 11
460.0558754379890161
 21
-15.5821488860256103
 31
0.0
  0
LINE
  5
D32A
  8
OUTLINE
  6
CONTINUOUS
 62
     3
 10
459.9801239781990034
 20
-211.3769954572489951
 30
0.0
 11
459.9367137929893943
 21
-213.0298972500258969
 31
0.0
  0
LINE
  5
D32B
  8
OUTLINE
  6
CONTINUOUS
 62
     3
 10
460.0558754379890161
 20
-15.5821488860256103
 30
0.0
 11
460.0537723029884205
 21
-15.6610060890261593
 31
0.0
  0
LINE
  5
D32C
  8
OUTLINE
  6
CONTINUOUS
 62
     3
 10
459.9908297109886917
 20
-157.1474001050264064
 30
0.0
 11
459.8436611799879188
 21
-163.0856218250264078
 31
0.0
  0
LINE
  5
D339
  8
OUTLINE
  6
CONTINUOUS
 62
     3
 10
459.981527648989811
 20
-211.2698763040262122
 30
0.0
 11
459.9801239782008793
 21
-211.3769954572225913
 31
0.0
  0
LINE
  5
D33A
  8
OUTLINE
  6
CONTINUOUS
 62
     3
 10
460.0921587709889877
 20
-188.8875684940267092
 30
0.0
 11
460.0721752399875868
 21
-190.9575006360263956
 31
0.0
  0
LINE
  5
D33B
  8
OUTLINE
  6
CONTINUOUS
 62
     3
 10
460.0721752399875868
 20
-190.9575006360263956
 30
0.0
 11
460.0551378799881945
 21
-193.1419011870256952
 31
0.0
  0
LINE
  5
D33C
  8
OUTLINE
  6
CONTINUOUS
 62
     3
 10
460.0551378799881945
 20
-193.1419011870256952
 30
0.0
 11
460.0415711879886089
 21
-195.2617797550265095
 31
0.0
  0
LINE
  5
D33D
  8
OUTLINE
  6
CONTINUOUS
 62
     3
 10
460.0415711879886089
 20
-195.2617797550265095
 30
0.0
 11
460.0306233759874885
 21
-197.2998536260255946
 31
0.0
  0
LINE
  5
D33E
  8
OUTLINE
  6
CONTINUOUS
 62
     3
 10
460.0306233759874885
 20
-197.2998536260255946
 30
0.0
 11
460.01444596898898
 21
-201.0654969170263939
 31
0.0
  0
LINE
  5
D33F
  8
OUTLINE
  6
CONTINUOUS
 62
     3
 10
460.01444596898898
 20
-201.0654969170263939
 30
0.0
 11
459.9987318959883282
 21
-205.7673824180255906
 31
0.0
  0
LINE
  5
D340
  8
OUTLINE
  6
CONTINUOUS
 62
     3
 10
459.9987318959883282
 20
-205.7673824180255906
 30
0.0
 11
459.981527648989811
 21
-211.2698763040262122
 31
0.0
  0
LINE
  5
D342
  8
OUTLINE
  6
CONTINUOUS
 62
     3
 10
459.979855902674899
 20
-157.5901911449035993
 30
0.0
 11
459.9798328889883123
 21
-181.4389606200257106
 31
0.0
  0
LINE
  5
D343
  8
OUTLINE
  6
CONTINUOUS
 62
     3
 10
459.9798563299883085
 20
-98.9271321637379515
 30
0.0
 11
459.9798563299883085
 21
-107.6582785099781034
 31
0.0
  0
LINE
  5
D345
  8
OUTLINE
  6
CONTINUOUS
 62
     3
 10
459.9909305769887737
 20
-107.8664567090262949
 30
0.0
 11
459.9911984849895248
 21
-157.1473721930260012
 31
0.0
  0
LINE
  5
D347
  8
OUTLINE
  6
CONTINUOUS
 62
     3
 10
460.0144950649882958
 20
-39.5456819660266774
 30
0.0
 11
460.0279560129893071
 21
-98.5018334490259804
 31
0.0
  0
LINE
  5
D348
  8
OUTLINE
  6
CONTINUOUS
 62
     3
 10
432.9778395929897101
 20
-4.899544476025766
 30
0.0
 11
432.9781759839423785
 21
-5.0468701889485601
 31
0.0
  0
LINE
  5
D350
  8
OUTLINE
  6
CONTINUOUS
 62
     3
 10
432.9752854749893913
 20
-4.6960278390261001
 30
0.0
 11
432.9778395929897101
 21
-4.899544476025766
 31
0.0
  0
LINE
  5
D35F
  8
OUTLINE
  6
CONTINUOUS
 62
     3
 10
432.9706187329883846
 20
-4.5133997880257084
 30
0.0
 11
432.9752854749893913
 21
-4.6960278390261001
 31
0.0
  0
LINE
  5
D361
  8
OUTLINE
  6
CONTINUOUS
 62
     3
 10
459.9880988989897901
 20
-107.7627439580264053
 30
0.0
 11
459.9908122249889857
 21
-107.8664581340263027
 31
0.0
  0
LINE
  5
D362
  8
OUTLINE
  6
CONTINUOUS
 62
     3
 10
460.0921588669879725
 20
-188.8875689280266101
 30
0.0
 11
460.0920556939889821
 21
-188.8842584210260043
 31
0.0
  0
LINE
  5
D364
  8
OUTLINE
  6
CONTINUOUS
 62
     3
 10
432.9642855359888927
 20
-4.3547068410261991
 30
0.0
 11
432.9706187329883846
 21
-4.5133997880257084
 31
0.0
  0
LINE
  5
D366
  8
OUTLINE
  6
CONTINUOUS
 62
     3
 10
432.9565745279887778
 20
-4.2189644260261039
 30
0.0
 11
432.9642855359888927
 21
-4.3547068410261991
 31
0.0
  0
LINE
  5
D367
  8
OUTLINE
  6
CONTINUOUS
 62
     3
 10
459.9812505424487767
 20
-107.670502262211798
 30
0.0
 11
459.9880988989897901
 21
-107.7627439580264053
 31
0.0
  0
LINE
  5
D368
  8
OUTLINE
  6
CONTINUOUS
 62
     3
 10
432.9475623589896145
 20
-4.103739291025704
 30
0.0
 11
432.9565745279887778
 21
-4.2189644260261039
 31
0.0
  0
LINE
  5
D369
  8
OUTLINE
  6
CONTINUOUS
 62
     3
 10
432.9367937799888182
 20
-4.0038318850256474
 30
0.0
 11
432.9475623589896145
 21
-4.103739291025704
 31
0.0
  0
LINE
  5
D36A
  8
OUTLINE
  6
CONTINUOUS
 62
     3
 10
459.934433566988389
 20
-107.2600346150265977
 30
0.0
 11
459.9812505424505957
 21
-107.6705022622253978
 31
0.0
  0
LINE
  5
D36B
  8
OUTLINE
  6
CONTINUOUS
 62
     3
 10
460.0907585369894832
 20
-188.8753168970260958
 30
0.0
 11
460.0920551239887004
 21
-188.8842585410257016
 31
0.0
  0
LINE
  5
D36C
  8
OUTLINE
  6
CONTINUOUS
 62
     3
 10
432.9225546619891247
 20
-3.9098720750262141
 30
0.0
 11
432.9367937799888182
 21
-4.0038318850256474
 31
0.0
  0
LINE
  5
D36D
  8
OUTLINE
  6
CONTINUOUS
 62
     3
 10
146.0870727519885861
 20
-1.8713906770262829
 30
0.0
 11
145.7156821719891013
 21
-0.9429142270255397
 31
0.0
  0
LINE
  5
D36E
  8
OUTLINE
  6
CONTINUOUS
 62
     3
 10
-458.8249438630119243
 20
-183.7895721640261115
 30
0.0
 11
-459.1343446110112723
 21
-183.5145145710266092
 31
0.0
  0
LINE
  5
D36F
  8
OUTLINE
  6
CONTINUOUS
 62
     3
 10
457.3391570479889197
 20
-186.5136344230259056
 30
0.0
 11
457.7894236269893895
 21
-186.5880031290261911
 31
0.0
  0
LINE
  5
D370
  8
OUTLINE
  6
CONTINUOUS
 62
     3
 10
-456.9862727610105821
 20
-184.4138905090258049
 30
0.0
 11
-457.2674616320109067
 21
-184.4008117340254103
 31
0.0
  0
LINE
  5
D371
  8
OUTLINE
  6
CONTINUOUS
 62
     3
 10
457.0438892219899003
 20
-186.5000033320266084
 30
0.0
 11
457.3391570479889197
 21
-186.5136344230259056
 31
0.0
  0
LINE
  5
D372
  8
OUTLINE
  6
CONTINUOUS
 62
     3
 10
-136.386516848011496
 20
-223.7446898600265115
 30
0.0
 11
-410.2116238410108053
 21
-223.2999627880263063
 31
0.0
  0
LINE
  5
D373
  8
OUTLINE
  6
CONTINUOUS
 62
     3
 10
136.8508387719884922
 20
-223.7443124800265082
 30
0.0
 11
-136.386516848011496
 21
-223.7446898600265115
 31
0.0
  0
LINE
  5
D374
  8
OUTLINE
  6
CONTINUOUS
 62
     3
 10
410.2119832239894777
 20
-223.299583687025887
 30
0.0
 11
136.8508387719884922
 21
-223.7443124800265082
 31
0.0
  0
LINE
  5
D376
  8
OUTLINE
  6
CONTINUOUS
 62
     3
 10
432.9013601469886794
 20
-3.8119769140266722
 30
0.0
 11
432.9225546619891247
 21
-3.9098720750262141
 31
0.0
  0
LINE
  5
D377
  8
OUTLINE
  6
CONTINUOUS
 62
     3
 10
460.017127985989589
 20
-188.612226283025791
 30
0.0
 11
460.0907584099878136
 21
-188.8753257940261108
 31
0.0
  0
LINE
  5
D378
  8
OUTLINE
  6
CONTINUOUS
 62
     3
 10
432.8701855939888787
 20
-3.7094363660262379
 30
0.0
 11
432.9013601469886794
 21
-3.8119769140266722
 31
0.0
  0
LINE
  5
D379
  8
OUTLINE
  6
CONTINUOUS
 62
     3
 10
324.0870727519887282
 20
-1.8713906770262829
 30
0.0
 11
323.7156821719891013
 21
-0.9429142270255397
 31
0.0
  0
LINE
  5
D37A
  8
OUTLINE
  6
CONTINUOUS
 62
     3
 10
432.8274957639878266
 20
-3.6055011190264841
 30
0.0
 11
432.8701855939888787
 21
-3.7094363660262379
 31
0.0
  0
LINE
  5
D37B
  8
OUTLINE
  6
CONTINUOUS
 62
     3
 10
459.8525209759882273
 20
-188.2128109980257875
 30
0.0
 11
460.017127985989589
 21
-188.612226283025791
 31
0.0
  0
LINE
  5
D37C
  8
OUTLINE
  6
CONTINUOUS
 62
     3
 10
-458.4773020110113748
 20
-184.020812827025992
 30
0.0
 11
-458.8249438630119243
 21
-183.7895721640261115
 31
0.0
  0
LINE
  5
D37E
  8
OUTLINE
  6
CONTINUOUS
 62
     3
 10
-457.2674616320109067
 20
-184.4008117340254103
 30
0.0
 11
-457.6917470760109268
 21
-184.3306777910256926
 31
0.0
  0
LINE
  5
D380
  8
OUTLINE
  6
CONTINUOUS
 62
     3
 10
432.7745038829888813
 20
-3.5061949720256962
 30
0.0
 11
432.8274957639878266
 21
-3.6055011190264841
 31
0.0
  0
LINE
  5
D381
  8
OUTLINE
  6
CONTINUOUS
 62
     3
 10
459.6282999089889927
 20
-187.8350213540261109
 30
0.0
 11
459.8525209759882273
 21
-188.2128109980257875
 31
0.0
  0
LINE
  5
D382
  8
OUTLINE
  6
CONTINUOUS
 62
     3
 10
432.7119278329882945
 20
-3.4131919740266312
 30
0.0
 11
432.7745038829888813
 21
-3.5061949720256962
 31
0.0
  0
LINE
  5
D383
  8
OUTLINE
  6
CONTINUOUS
 62
     3
 10
459.3477298229880716
 20
-187.4888861870257983
 30
0.0
 11
459.6282999089889927
 21
-187.8350213540261109
 31
0.0
  0
LINE
  5
D388
  8
OUTLINE
  6
CONTINUOUS
 62
     3
 10
-458.0973839080106131
 20
-184.2027300280259965
 30
0.0
 11
-458.4773020110113748
 21
-184.020812827025992
 31
0.0
  0
LINE
  5
D411
  8
OUTLINE
  6
CONTINUOUS
 62
     3
 10
432.6416546019880798
 20
-3.3288563110263558
 30
0.0
 11
432.7119278329882945
 21
-3.4131919740266312
 31
0.0
  0
LINE
  5
D412
  8
OUTLINE
  6
CONTINUOUS
 62
     3
 10
432.5468341969898916
 20
-3.2382711790260141
 30
0.0
 11
432.6416546019880798
 21
-3.3288563110263558
 31
0.0
  0
LINE
  5
D413
  8
OUTLINE
  6
CONTINUOUS
 62
     3
 10
459.0158002709886205
 20
-187.1835175400264859
 30
0.0
 11
459.3477298229880716
 21
-187.4888861870257983
 31
0.0
  0
LINE
  5
D414
  8
OUTLINE
  6
CONTINUOUS
 62
     3
 10
458.6390824249883735
 20
-186.9270200650261984
 30
0.0
 11
459.0158002709886205
 21
-187.1835175400264859
 31
0.0
  0
LINE
  5
D416
  8
OUTLINE
  6
CONTINUOUS
 62
     3
 10
-457.6917470760109268
 20
-184.3306777910256926
 30
0.0
 11
-458.0973839080106131
 21
-184.2027300280259965
 31
0.0
  0
LINE
  5
D536
  8
OUTLINE
  6
CONTINUOUS
 62
     3
 10
432.4433132539888902
 20
-3.1615694010260991
 30
0.0
 11
432.5468341969898916
 21
-3.2382711790260141
 31
0.0
  0
LINE
  5
D537
  8
OUTLINE
  6
CONTINUOUS
 62
     3
 10
458.2266745049890915
 20
-186.7267359470260999
 30
0.0
 11
458.6390824249883735
 21
-186.9270200650261984
 31
0.0
  0
LINE
  5
D538
  8
OUTLINE
  6
CONTINUOUS
 62
     3
 10
457.7894236269893895
 20
-186.5880031290261911
 30
0.0
 11
458.2266745049890915
 21
-186.7267359470260999
 31
0.0
  0
LINE
  5
D6D0
  8
OUTLINE
  6
CONTINUOUS
 62
     3
 10
432.2959417539894957
 20
-3.0826244730260441
 30
0.0
 11
432.4433132539888902
 21
-3.1615694010260991
 31
0.0
  0
LINE
  5
D6D1
  8
OUTLINE
  6
CONTINUOUS
 62
     3
 10
432.1379530399898954
 20
-3.0293130550262499
 30
0.0
 11
432.2959417539894957
 21
-3.0826244730260441
 31
0.0
  0
ARC
  5
D72E
  8
OUTLINE
  6
CONTINUOUS
 62
     3
 10
-408.8550360500120178
 20
372.7243127289739277
 30
0.0
 40
376.9998207479999905
 50
267.5003270372613997
 51
268.9458082419030802
  0
ARC
  5
D72F
  8
OUTLINE
  6
CONTINUOUS
 62
     3
 10
-409.9955445950108128
 20
310.7441733369741996
 30
0.0
 40
315.0091793739999844
 50
268.9458082419030802
 51
270.0
  0
ARC
  5
D730
  8
OUTLINE
  6
CONTINUOUS
 62
     3
 10
-333.6770329180108092
 20
-1.500000108026142
 30
0.0
 40
1.5
 50
21.8014094862985885
 51
90.0000016504344984
  0
ARC
  5
D731
  8
OUTLINE
  6
CONTINUOUS
 62
     3
 10
-322.3229671350109129
 20
-1.5000002420256351
 30
0.0
 40
1.5
 50
89.9999963158083034
 51
158.1985905135900907
  0
ARC
  5
D732
  8
OUTLINE
  6
CONTINUOUS
 62
     3
 10
-144.3229671350109129
 20
-1.5000002420256351
 30
0.0
 40
1.5
 50
89.9999963158083034
 51
158.1985905135900907
  0
ARC
  5
D733
  8
OUTLINE
  6
CONTINUOUS
 62
     3
 10
-155.6770329610116903
 20
-1.5000000000263749
 30
0.0
 40
1.5
 50
21.8014094864098702
 51
90.0
  0
ARC
  5
D734
  8
OUTLINE
  6
CONTINUOUS
 62
     3
 10
-330.9844505530109018
 20
-1.5000000000263749
 30
0.0
 40
1.0
 50
201.8014094000943999
 51
269.2334493314995143
  0
ARC
  5
D735
  8
OUTLINE
  6
CONTINUOUS
 62
     3
 10
-325.0155494460123009
 20
-1.5000000000263749
 30
0.0
 40
1.0
 50
270.766550679131683
 51
338.1985906038802909
  0
ARC
  5
D736
  8
OUTLINE
  6
CONTINUOUS
 62
     3
 10
-152.9844505570108026
 20
-1.5000000000263749
 30
0.0
 40
1.0
 50
201.8014094864099093
 51
269.2334495615347123
  0
ARC
  5
D737
  8
OUTLINE
  6
CONTINUOUS
 62
     3
 10
-147.0155494460103967
 20
-1.5000000000263749
 30
0.0
 40
1.0
 50
270.766550679131683
 51
338.1985906038802909
  0
ARC
  5
D738
  8
OUTLINE
  6
CONTINUOUS
 62
     3
 10
-459.8645603870099876
 20
-13.4852504840264409
 30
0.0
 40
0.5
 50
112.6470975790475961
 51
189.4666842713133974
  0
ARC
  5
D739
  8
OUTLINE
  6
CONTINUOUS
 62
     3
 10
-341.0000000000109139
 20
-0.5000000000263753
 30
0.0
 40
0.5
 50
90.0
 51
180.0
  0
ARC
  5
D73A
  8
OUTLINE
  6
CONTINUOUS
 62
     3
 10
-410.0000000000108002
 20
-93.0000000000263753
 30
0.0
 40
130.3000000000000114
 50
247.6124366390712055
 51
269.9069443919108267
  0
ARC
  5
D73B
  8
OUTLINE
  6
CONTINUOUS
 62
     3
 10
-410.0000000000108002
 20
-133.0000000000264038
 30
0.0
 40
130.0
 50
105.1514345676338991
 51
112.6471250782197018
  0
ARC
  5
D73C
  8
OUTLINE
  6
CONTINUOUS
 62
     3
 10
-458.0230047830117996
 20
-98.502291223026063
 30
0.0
 40
1.997710531999999
 50
179.9211422461025904
 51
191.6080200501465924
  0
ARC
  5
D73D
  8
OUTLINE
  6
CONTINUOUS
 62
     3
 10
-459.4368851300113761
 20
-213.0168087760266928
 30
0.0
 40
0.5
 50
181.4999999999897966
 51
247.6124366390712055
  0
ARC
  5
D73E
  8
OUTLINE
  6
CONTINUOUS
 62
     3
 10
398.4268067549891725
 20
372.7243127289739277
 30
0.0
 40
376.9998207479999905
 50
271.0541917580969198
 51
272.4996729627386003
  0
ARC
  5
D73F
  8
OUTLINE
  6
CONTINUOUS
 62
     3
 10
399.5673152999880244
 20
310.7441733369741996
 30
0.0
 40
315.0091793739999844
 50
270.0
 51
271.0541917580969198
  0
ARC
  5
D740
  8
OUTLINE
  6
CONTINUOUS
 62
     3
 10
144.3229671349891134
 20
-1.5000002420256351
 30
0.0
 40
1.5
 50
21.8014094864098702
 51
90.0000036841916824
  0
ARC
  5
D741
  8
OUTLINE
  6
CONTINUOUS
 62
     3
 10
155.6770329619884876
 20
-1.5000000000263749
 30
0.0
 40
1.5
 50
90.0
 51
158.1985905135900907
  0
ARC
  5
D742
  8
OUTLINE
  6
CONTINUOUS
 62
     3
 10
322.322967134989085
 20
-1.5000002420256351
 30
0.0
 40
1.5
 50
21.8014094864098702
 51
90.0000036841916824
  0
ARC
  5
D743
  8
OUTLINE
  6
CONTINUOUS
 62
     3
 10
333.6770329189894255
 20
-1.500000108026142
 30
0.0
 40
1.5
 50
89.9999983495655016
 51
158.1985905135900907
  0
ARC
  5
D744
  8
OUTLINE
  6
CONTINUOUS
 62
     3
 10
152.9844505579895042
 20
-1.5000000000263749
 30
0.0
 40
1.0
 50
270.7665504384652877
 51
338.1985905135902044
  0
ARC
  5
D745
  8
OUTLINE
  6
CONTINUOUS
 62
     3
 10
147.0155494469890982
 20
-1.5000000000263749
 30
0.0
 40
1.0
 50
201.8014093961197091
 51
269.233449320868317
  0
ARC
  5
D746
  8
OUTLINE
  6
CONTINUOUS
 62
     3
 10
325.0155494469890982
 20
-1.5000000000263749
 30
0.0
 40
1.0
 50
201.8014093961197091
 51
269.233449320868317
  0
ARC
  5
D747
  8
OUTLINE
  6
CONTINUOUS
 62
     3
 10
330.9844505539876991
 20
-1.5000000000263749
 30
0.0
 40
1.0
 50
270.7665506685004857
 51
338.1985905999055717
  0
ARC
  5
D748
  8
OUTLINE
  6
CONTINUOUS
 62
     3
 10
340.9999999999890861
 20
-0.5000000000263753
 30
0.0
 40
0.5
 50
0.0
 51
90.0
  0
ARC
  5
D749
  8
OUTLINE
  6
CONTINUOUS
 62
     3
 10
459.8645604599877856
 20
-13.4852500520264602
 30
0.0
 40
0.5
 50
350.5332654899875138
 51
67.352890965776524
  0
ARC
  5
D74A
  8
OUTLINE
  6
CONTINUOUS
 62
     3
 10
409.9999999999890861
 20
-93.0000000000263753
 30
0.0
 40
130.3000000000000114
 50
270.0932139074371889
 51
292.3875633609288229
  0
ARC
  5
D74B
  8
OUTLINE
  6
CONTINUOUS
 62
     3
 10
409.9999999999890861
 20
-133.0000000000264038
 30
0.0
 40
130.0
 50
67.3528749217802556
 51
79.8191838980456509
  0
ARC
  5
D74C
  8
OUTLINE
  6
CONTINUOUS
 62
     3
 10
458.0178430053255738
 20
-98.4898665416094445
 30
0.0
 40
2.0101486289450179
 50
347.4360593637463808
 51
359.6589021682186171
  0
ARC
  5
D74D
  8
OUTLINE
  6
CONTINUOUS
 62
     3
 10
459.4368851309881734
 20
-213.016808773026213
 30
0.0
 40
0.5
 50
292.3875632430275004
 51
358.4999996946963279
  0
CIRCLE
  5
DBB0
  8
ARRANGE
  6
CONTINUOUS
 62
     1
 10
0.0
 20
0.0
 30
0.0
 40
21.0
  0
LINE
  5
DBB7
  8
BASIS
  6
AM_ISO08W050
 62
     6
 10
-0.0000000000009095
 20
49.9999999999954525
 30
0.0
 11
0.0
 21
-300.0000000000035811
 31
0.0
  0
LINE
  5
DBDC
  8
SERVICESPACE
  6
AM_ISO02W050
 62
     2
 10
560.0000000000009095
 20
-300.0000000000046043
 30
0.0
 11
560.0
 21
-0.0000000000045475
 31
0.0
  0
LINE
  5
DBDD
  8
SERVICESPACE
  6
AM_ISO02W050
 62
     2
 10
560.0
 20
-0.0000000000009095
 30
0.0
 11
-560.0
 21
-0.0000000000045475
 31
0.0
  0
LINE
  5
DBDE
  8
SERVICESPACE
  6
AM_ISO02W050
 62
     2
 10
-560.0
 20
-0.0000000000045475
 30
0.0
 11
-559.9999999999989768
 21
-300.0000000000046043
 31
0.0
  0
CIRCLE
  5
DBF2
  8
FIX
  6
CONTINUOUS
 62
    11
 10
315.0
 20
0.0000000000063665
 30
0.0
 40
2.5
  0
CIRCLE
  5
DBF3
  8
FIX
  6
CONTINUOUS
 62
    11
 10
284.0
 20
-0.0000000000045475
 30
0.0
 40
2.5
  0
CIRCLE
  5
DBF4
  8
FIX
  6
CONTINUOUS
 62
    11
 10
-283.9999999999990905
 20
-0.0000000000045475
 30
0.0
 40
2.5
  0
CIRCLE
  5
DBF5
  8
FIX
  6
CONTINUOUS
 62
    11
 10
-315.0
 20
-0.0000000000045475
 30
0.0
 40
2.5
  0
LINE
  5
DC00
  8
BASIS
  6
AM_ISO08W050
 62
     6
 10
-315.0
 20
18.99999999999363
 30
0.0
 11
-315.0
 21
-19.00000000000637
 31
0.0
  0
LINE
  5
DC01
  8
BASIS
  6
AM_ISO08W050
 62
     6
 10
-283.9999999999990905
 20
18.999999999995449
 30
0.0
 11
-283.9999999999990905
 21
-19.000000000004551
 31
0.0
  0
LINE
  5
DC02
  8
BASIS
  6
AM_ISO08W050
 62
     6
 10
284.0
 20
19.00000000000637
 30
0.0
 11
284.0
 21
-18.99999999999363
 31
0.0
  0
LINE
  5
DC03
  8
BASIS
  6
AM_ISO08W050
 62
     6
 10
315.0
 20
18.999999999995449
 30
0.0
 11
315.0
 21
-19.000000000004551
 31
0.0
  0
LINE
  5
E599
  8
NOTE
  6
CONTINUOUS
 62
     4
 10
-342.7339526539190047
 20
120.8448732989750027
 30
0.0
 11
105.9472540656743007
 21
120.8448732989750027
 31
0.0
  0
LINE
  5
E59A
  8
NOTE
  6
CONTINUOUS
 62
     4
 10
-395.6315015732661777
 20
-27.7687393371634315
 30
0.0
 11
-342.7339526539190047
 21
120.8448732989750027
 31
0.0
  0
TEXT
  5
E59B
  8
NOTE
  6
CONTINUOUS
 62
     4
 10
-339.0967294992196912
 20
136.8448732989749885
 30
0.0
 40
32.0
  1
Outlet for downward piping
 41
0.7
  0
LINE
  5
E59C
  8
NOTE
  6
CONTINUOUS
 62
     4
 10
390.4969693607931731
 20
-30.4402077164070306
 30
0.0
 11
444.1019797949119834
 21
120.844873298975898
 31
0.0
  0
LINE
  5
E59D
  8
NOTE
  6
CONTINUOUS
 62
     4
 10
444.1019797949119834
 20
120.844873298975898
 30
0.0
 11
892.8202293215598502
 21
120.844873298975898
 31
0.0
  0
TEXT
  5
E59E
  8
NOTE
  6
CONTINUOUS
 62
     4
 10
447.7392029496114105
 20
136.7917616167756023
 30
0.0
 40
32.0
  1
Outlet for downward piping
 41
0.7
  0
LINE
  5
F5BB
  8
DETAIL
  6
CONTINUOUS
 62
     5
 10
-460.0357637400001067
 20
-17.3431204870094007
 30
0.0
 11
-460.0320733669994979
 21
-18.215285778009271
 31
0.0
  0
LINE
  5
F5BC
  8
DETAIL
  6
CONTINUOUS
 62
     5
 10
-460.0320733669994979
 20
-18.215285778009271
 30
0.0
 11
-460.027232907999803
 21
-20.1770456120093513
 31
0.0
  0
LINE
  5
F5BD
  8
DETAIL
  6
CONTINUOUS
 62
     5
 10
-460.027232907999803
 20
-20.1770456120093513
 30
0.0
 11
-460.024301825999828
 21
-22.3944384550095492
 31
0.0
  0
LINE
  5
F5BE
  8
DETAIL
  6
CONTINUOUS
 62
     5
 10
-460.024301825999828
 20
-22.3944384550095492
 30
0.0
 11
-460.0224453359996915
 21
-24.8229376570088789
 31
0.0
  0
LINE
  5
F5BF
  8
DETAIL
  6
CONTINUOUS
 62
     5
 10
-460.0224453359996915
 20
-24.8229376570088789
 30
0.0
 11
-460.0213217349992192
 21
-27.4141745340093692
 31
0.0
  0
LINE
  5
F5C0
  8
DETAIL
  6
CONTINUOUS
 62
     5
 10
-460.0213217349992192
 20
-27.4141745340093692
 30
0.0
 11
-460.0206883430000744
 21
-32.8759298010099883
 31
0.0
  0
LINE
  5
F5C1
  8
DETAIL
  6
CONTINUOUS
 62
     5
 10
-358.1335893649983859
 20
-59.6819851180071126
 30
0.0
 11
-358.1403489529993749
 21
-59.7022991440071493
 31
0.0
  0
LINE
  5
F5C2
  8
DETAIL
  6
CONTINUOUS
 62
     5
 10
-358.1403489529993749
 20
-59.7022991440071493
 30
0.0
 11
-358.1456424369990259
 21
-59.7230444660072024
 31
0.0
  0
LINE
  5
F5C3
  8
DETAIL
  6
CONTINUOUS
 62
     5
 10
-358.1456424369990259
 20
-59.7230444660072024
 30
0.0
 11
-358.1494428659988785
 21
-59.7441154610069134
 31
0.0
  0
LINE
  5
F5C4
  8
DETAIL
  6
CONTINUOUS
 62
     5
 10
-358.1494428659988785
 20
-59.7441154610069134
 30
0.0
 11
-358.151730890998806
 21
-59.7654048490076093
 31
0.0
  0
LINE
  5
F5C5
  8
DETAIL
  6
CONTINUOUS
 62
     5
 10
-358.151730890998806
 20
-59.7654048490076093
 30
0.0
 11
-358.1524948629985943
 21
-59.7868042370073383
 31
0.0
  0
LINE
  5
F5C6
  8
DETAIL
  6
CONTINUOUS
 62
     5
 10
-345.6472811159982825
 20
-76.4794941410073079
 30
0.0
 11
-345.6717568379982026
 21
-76.5616486360067938
 31
0.0
  0
LINE
  5
F5C7
  8
DETAIL
  6
CONTINUOUS
 62
     5
 10
-345.6717568379982026
 20
-76.5616486360067938
 30
0.0
 11
-345.719447020998814
 21
-76.6341625410068445
 31
0.0
  0
LINE
  5
F5C8
  8
DETAIL
  6
CONTINUOUS
 62
     5
 10
-345.719447020998814
 20
-76.6341625410068445
 30
0.0
 11
-345.7862955489990782
 21
-76.6908684500067466
 31
0.0
  0
LINE
  5
F5C9
  8
DETAIL
  6
CONTINUOUS
 62
     5
 10
-345.7862955489990782
 20
-76.6908684500067466
 30
0.0
 11
-345.8666168659984237
 21
-76.7269434480067503
 31
0.0
  0
LINE
  5
F5CA
  8
DETAIL
  6
CONTINUOUS
 62
     5
 10
-345.8666168659984237
 20
-76.7269434480067503
 30
0.0
 11
-345.9535795339988908
 21
-76.7393193090065324
 31
0.0
  0
LINE
  5
F5CB
  8
DETAIL
  6
CONTINUOUS
 62
     5
 10
-358.3871207349994279
 20
-58.9857765970073089
 30
0.0
 11
-358.3869013489992881
 21
-58.9704247770068832
 31
0.0
  0
LINE
  5
F5CC
  8
DETAIL
  6
CONTINUOUS
 62
     5
 10
-358.3869013489992881
 20
-58.9704247770068832
 30
0.0
 11
-358.3861835029993017
 21
-58.9550359430068127
 31
0.0
  0
LINE
  5
F5CD
  8
DETAIL
  6
CONTINUOUS
 62
     5
 10
-358.3861835029993017
 20
-58.9550359430068127
 30
0.0
 11
-358.3849717539987978
 21
-58.9396274940072473
 31
0.0
  0
LINE
  5
F5CE
  8
DETAIL
  6
CONTINUOUS
 62
     5
 10
-358.3849717539987978
 20
-58.9396274940072473
 30
0.0
 11
-358.3832706579987075
 21
-58.9242168290074915
 31
0.0
  0
LINE
  5
F5CF
  8
DETAIL
  6
CONTINUOUS
 62
     5
 10
-358.3832706579987075
 20
-58.9242168290074915
 30
0.0
 11
-358.3810847699987789
 21
-58.9088213470067785
 31
0.0
  0
LINE
  5
F5D0
  8
DETAIL
  6
CONTINUOUS
 62
     5
 10
-358.3810847699987789
 20
-58.9088213470067785
 30
0.0
 11
-358.3784186459989201
 21
-58.8934584500075289
 31
0.0
  0
LINE
  5
F5D1
  8
DETAIL
  6
CONTINUOUS
 62
     5
 10
-358.3784186459989201
 20
-58.8934584500075289
 30
0.0
 11
-358.375276841998982
 21
-58.8781455340067623
 31
0.0
  0
LINE
  5
F5D2
  8
DETAIL
  6
CONTINUOUS
 62
     5
 10
-358.375276841998982
 20
-58.8781455340067623
 30
0.0
 11
-358.3716639149989192
 21
-58.8629000020073434
 31
0.0
  0
LINE
  5
F5D3
  8
DETAIL
  6
CONTINUOUS
 62
     5
 10
-358.3716639149989192
 20
-58.8629000020073434
 30
0.0
 11
-358.3675844199988205
 21
-58.8477392500071801
 31
0.0
  0
LINE
  5
F5D4
  8
DETAIL
  6
CONTINUOUS
 62
     5
 10
-358.3675844199988205
 20
-58.8477392500071801
 30
0.0
 11
-358.3630429129989921
 21
-58.8326806800068809
 31
0.0
  0
LINE
  5
F5D5
  8
DETAIL
  6
CONTINUOUS
 62
     5
 10
-358.3630429129989921
 20
-58.8326806800068809
 30
0.0
 11
-358.3580439499992281
 21
-58.8177416900070966
 31
0.0
  0
LINE
  5
F5D6
  8
DETAIL
  6
CONTINUOUS
 62
     5
 10
-358.3580439499992281
 20
-58.8177416900070966
 30
0.0
 11
-358.3525920879991986
 21
-58.8029396800066024
 31
0.0
  0
LINE
  5
F5D7
  8
DETAIL
  6
CONTINUOUS
 62
     5
 10
-358.3525920879991986
 20
-58.8029396800066024
 30
0.0
 11
-358.3466918809991171
 21
-58.7882920500069304
 31
0.0
  0
LINE
  5
F5D8
  8
DETAIL
  6
CONTINUOUS
 62
     5
 10
-358.3466918809991171
 20
-58.7882920500069304
 30
0.0
 11
-358.3403478869985861
 21
-58.773816198006898
 31
0.0
  0
LINE
  5
F5D9
  8
DETAIL
  6
CONTINUOUS
 62
     5
 10
-358.3403478869985861
 20
-58.773816198006898
 30
0.0
 11
-358.3335646599988991
 21
-58.7595295250066485
 31
0.0
  0
LINE
  5
F5DA
  8
DETAIL
  6
CONTINUOUS
 62
     5
 10
-358.3335646599988991
 20
-58.7595295250066485
 30
0.0
 11
-358.3263467569985892
 21
-58.7454494290068325
 31
0.0
  0
LINE
  5
F5DB
  8
DETAIL
  6
CONTINUOUS
 62
     5
 10
-358.3263467569985892
 20
-58.7454494290068325
 30
0.0
 11
-358.3186987339987013
 21
-58.7315933110066908
 31
0.0
  0
LINE
  5
F5DC
  8
DETAIL
  6
CONTINUOUS
 62
     5
 10
-358.3186987339987013
 20
-58.7315933110066908
 30
0.0
 11
-358.3106251469989729
 21
-58.7179785690068385
 31
0.0
  0
LINE
  5
F5DD
  8
DETAIL
  6
CONTINUOUS
 62
     5
 10
-358.3106251469989729
 20
-58.7179785690068385
 30
0.0
 11
-358.3021305509992089
 21
-58.7046226030070102
 31
0.0
  0
LINE
  5
F5DE
  8
DETAIL
  6
CONTINUOUS
 62
     5
 10
-358.3021305509992089
 20
-58.7046226030070102
 30
0.0
 11
-358.2932195029989089
 21
-58.6915428120064391
 31
0.0
  0
LINE
  5
F5DF
  8
DETAIL
  6
CONTINUOUS
 62
     5
 10
-358.2932195029989089
 20
-58.6915428120064391
 30
0.0
 11
-358.2838965589990039
 21
-58.6787565970071228
 31
0.0
  0
LINE
  5
F5E0
  8
DETAIL
  6
CONTINUOUS
 62
     5
 10
-358.2838965589990039
 20
-58.6787565970071228
 30
0.0
 11
-358.2741662739991284
 21
-58.666281355006511
 31
0.0
  0
LINE
  5
F5E1
  8
DETAIL
  6
CONTINUOUS
 62
     5
 10
-358.2741662739991284
 20
-58.666281355006511
 30
0.0
 11
-358.2640332049987251
 21
-58.6541344880070028
 31
0.0
  0
LINE
  5
F5E2
  8
DETAIL
  6
CONTINUOUS
 62
     5
 10
-358.2640332049987251
 20
-58.6541344880070028
 30
0.0
 11
-358.2535019069991904
 21
-58.6423333930070001
 31
0.0
  0
LINE
  5
F5E3
  8
DETAIL
  6
CONTINUOUS
 62
     5
 10
-358.2535019069991904
 20
-58.6423333930070001
 30
0.0
 11
-358.2425769359987839
 21
-58.630895471007527
 31
0.0
  0
LINE
  5
F5E4
  8
DETAIL
  6
CONTINUOUS
 62
     5
 10
-358.2425769359987839
 20
-58.630895471007527
 30
0.0
 11
-358.2312558719987123
 21
-58.6198275020069488
 31
0.0
  0
LINE
  5
F5E5
  8
DETAIL
  6
CONTINUOUS
 62
     5
 10
-358.2312558719987123
 20
-58.6198275020069488
 30
0.0
 11
-358.2195627759983836
 21
-58.609146348007009
 31
0.0
  0
LINE
  5
F5E6
  8
DETAIL
  6
CONTINUOUS
 62
     5
 10
-358.2195627759983836
 20
-58.609146348007009
 30
0.0
 11
-358.2075153529995077
 21
-58.5988576470072005
 31
0.0
  0
LINE
  5
F5E7
  8
DETAIL
  6
CONTINUOUS
 62
     5
 10
-358.2075153529995077
 20
-58.5988576470072005
 30
0.0
 11
-358.19513130799902
 21
-58.5889670350070375
 31
0.0
  0
LINE
  5
F5E8
  8
DETAIL
  6
CONTINUOUS
 62
     5
 10
-358.19513130799902
 20
-58.5889670350070375
 30
0.0
 11
-358.1824283469986767
 21
-58.5794801510073668
 31
0.0
  0
LINE
  5
F5E9
  8
DETAIL
  6
CONTINUOUS
 62
     5
 10
-358.1824283469986767
 20
-58.5794801510073668
 30
0.0
 11
-358.1694241749983121
 21
-58.5704026300072584
 31
0.0
  0
LINE
  5
F5EA
  8
DETAIL
  6
CONTINUOUS
 62
     5
 10
-358.1694241749983121
 20
-58.5704026300072584
 30
0.0
 11
-358.1561364959989078
 21
-58.5617401090066778
 31
0.0
  0
LINE
  5
F5EB
  8
DETAIL
  6
CONTINUOUS
 62
     5
 10
-358.1561364959989078
 20
-58.5617401090066778
 30
0.0
 11
-358.1425830169982873
 21
-58.5534982270073669
 31
0.0
  0
LINE
  5
F5EC
  8
DETAIL
  6
CONTINUOUS
 62
     5
 10
-358.1425830169982873
 20
-58.5534982270073669
 30
0.0
 11
-358.128781440998921
 21
-58.5456826190074935
 31
0.0
  0
LINE
  5
F5ED
  8
DETAIL
  6
CONTINUOUS
 62
     5
 10
-358.128781440998921
 20
-58.5456826190074935
 30
0.0
 11
-358.114749473998927
 21
-58.53829892300746
 31
0.0
  0
LINE
  5
F5EE
  8
DETAIL
  6
CONTINUOUS
 62
     5
 10
-358.114749473998927
 20
-58.53829892300746
 30
0.0
 11
-358.1005048219985838
 21
-58.5313527760063224
 31
0.0
  0
LINE
  5
F5EF
  8
DETAIL
  6
CONTINUOUS
 62
     5
 10
-358.1005048219985838
 20
-58.5313527760063224
 30
0.0
 11
-358.0860651889988731
 21
-58.5248498140072115
 31
0.0
  0
LINE
  5
F5F0
  8
DETAIL
  6
CONTINUOUS
 62
     5
 10
-358.0860651889988731
 20
-58.5248498140072115
 30
0.0
 11
-358.0714482799986058
 21
-58.5187956760073575
 31
0.0
  0
LINE
  5
F5F1
  8
DETAIL
  6
CONTINUOUS
 62
     5
 10
-358.0714482799986058
 20
-58.5187956760073575
 30
0.0
 11
-358.0566718009985721
 21
-58.5131959970076423
 31
0.0
  0
LINE
  5
F5F2
  8
DETAIL
  6
CONTINUOUS
 62
     5
 10
-358.0566718009985721
 20
-58.5131959970076423
 30
0.0
 11
-358.041753455999185
 21
-58.5080564150066493
 31
0.0
  0
LINE
  5
F5F3
  8
DETAIL
  6
CONTINUOUS
 62
     5
 10
-358.041753455999185
 20
-58.5080564150066493
 30
0.0
 11
-358.0267109509986767
 21
-58.5033825660075308
 31
0.0
  0
LINE
  5
F5F4
  8
DETAIL
  6
CONTINUOUS
 62
     5
 10
-358.0267109509986767
 20
-58.5033825660075308
 30
0.0
 11
-358.0115619909984161
 21
-58.4991800890075027
 31
0.0
  0
LINE
  5
F5F5
  8
DETAIL
  6
CONTINUOUS
 62
     5
 10
-358.0115619909984161
 20
-58.4991800890075027
 30
0.0
 11
-357.9963242809990902
 21
-58.4954546200069672
 31
0.0
  0
LINE
  5
F5F6
  8
DETAIL
  6
CONTINUOUS
 62
     5
 10
-357.9963242809990902
 20
-58.4954546200069672
 30
0.0
 11
-357.9810155259992825
 21
-58.4922117950072789
 31
0.0
  0
LINE
  5
F5F7
  8
DETAIL
  6
CONTINUOUS
 62
     5
 10
-357.9810155259992825
 20
-58.4922117950072789
 30
0.0
 11
-357.9656534309988274
 21
-58.4894572520070071
 31
0.0
  0
LINE
  5
F5F8
  8
DETAIL
  6
CONTINUOUS
 62
     5
 10
-357.9656534309988274
 20
-58.4894572520070071
 30
0.0
 11
-357.9502557009992074
 21
-58.487196628007041
 31
0.0
  0
LINE
  5
F5F9
  8
DETAIL
  6
CONTINUOUS
 62
     5
 10
-357.9502557009992074
 20
-58.487196628007041
 30
0.0
 11
-357.9348400419985978
 21
-58.4854355600073106
 31
0.0
  0
LINE
  5
F5FA
  8
DETAIL
  6
CONTINUOUS
 62
     5
 10
-357.9348400419985978
 20
-58.4854355600073106
 30
0.0
 11
-357.9194241579988898
 21
-58.4841796850068931
 31
0.0
  0
LINE
  5
F5FB
  8
DETAIL
  6
CONTINUOUS
 62
     5
 10
-357.9194241579988898
 20
-58.4841796850068931
 30
0.0
 11
-357.9040257549987132
 21
-58.4834346400075376
 31
0.0
  0
LINE
  5
F5FC
  8
DETAIL
  6
CONTINUOUS
 62
     5
 10
-357.9040257549987132
 20
-58.4834346400075376
 30
0.0
 11
-357.8886625369987087
 21
-58.4832060620074117
 31
0.0
  0
LINE
  5
F5FD
  8
DETAIL
  6
CONTINUOUS
 62
     5
 10
-345.6472811159993057
 20
-59.786804237006443
 30
0.0
 11
-345.6480450879989803
 21
-59.7654048490066998
 31
0.0
  0
LINE
  5
F5FE
  8
DETAIL
  6
CONTINUOUS
 62
     5
 10
-345.6480450879989803
 20
-59.7654048490066998
 30
0.0
 11
-345.6503331129987941
 21
-59.7441154610069134
 31
0.0
  0
LINE
  5
F5FF
  8
DETAIL
  6
CONTINUOUS
 62
     5
 10
-345.6503331129987941
 20
-59.7441154610069134
 30
0.0
 11
-345.6541335419988172
 21
-59.7230444660072024
 31
0.0
  0
LINE
  5
F600
  8
DETAIL
  6
CONTINUOUS
 62
     5
 10
-345.6541335419988172
 20
-59.7230444660072024
 30
0.0
 11
-345.6594270259984114
 21
-59.7022991440062469
 31
0.0
  0
LINE
  5
F601
  8
DETAIL
  6
CONTINUOUS
 62
     5
 10
-345.6594270259984114
 20
-59.7022991440062469
 30
0.0
 11
-345.6661866129988994
 21
-59.6819851180071126
 31
0.0
  0
LINE
  5
F602
  8
DETAIL
  6
CONTINUOUS
 62
     5
 10
-460.0723380769995856
 20
-15.2791397820092207
 30
0.0
 11
-460.062769278999383
 21
-15.3608458600092508
 31
0.0
  0
LINE
  5
F603
  8
DETAIL
  6
CONTINUOUS
 62
     5
 10
-460.062769278999383
 20
-15.3608458600092508
 30
0.0
 11
-460.0589579990000857
 21
-15.4432017260096401
 31
0.0
  0
LINE
  5
F604
  8
DETAIL
  6
CONTINUOUS
 62
     5
 10
-460.0589579990000857
 20
-15.4432017260096401
 30
0.0
 11
-460.0576211710003918
 21
-15.5257867970094594
 31
0.0
  0
LINE
  5
F605
  8
DETAIL
  6
CONTINUOUS
 62
     5
 10
-460.0576211710003918
 20
-15.5257867970094594
 30
0.0
 11
-460.0499368609998214
 21
-15.8425656470099003
 31
0.0
  0
LINE
  5
F606
  8
DETAIL
  6
CONTINUOUS
 62
     5
 10
-460.0499368609998214
 20
-15.8425656470099003
 30
0.0
 11
-460.0439132179998865
 21
-16.1962130000092586
 31
0.0
  0
LINE
  5
F607
  8
DETAIL
  6
CONTINUOUS
 62
     5
 10
-460.0439132179998865
 20
-16.1962130000092586
 30
0.0
 11
-460.0357637400001067
 21
-17.3431204870094007
 31
0.0
  0
LINE
  5
F608
  8
DETAIL
  6
CONTINUOUS
 62
     5
 10
-459.7527379519959823
 20
-210.5076417770088142
 30
0.0
 11
-459.7629078579956854
 21
-210.5144645450091048
 31
0.0
  0
LINE
  5
F609
  8
DETAIL
  6
CONTINUOUS
 62
     5
 10
-459.7629078579956854
 20
-210.5144645450091048
 30
0.0
 11
-459.7729182399953061
 21
-210.5216198290090119
 31
0.0
  0
LINE
  5
F60A
  8
DETAIL
  6
CONTINUOUS
 62
     5
 10
-459.7729182399953061
 20
-210.5216198290090119
 30
0.0
 11
-459.7827635239963797
 21
-210.529097371008902
 31
0.0
  0
LINE
  5
F60B
  8
DETAIL
  6
CONTINUOUS
 62
     5
 10
-459.7827635239963797
 20
-210.529097371008902
 30
0.0
 11
-459.7924381329958123
 21
-210.5368869080085119
 31
0.0
  0
LINE
  5
F60C
  8
DETAIL
  6
CONTINUOUS
 62
     5
 10
-459.7924381329958123
 20
-210.5368869080085119
 30
0.0
 11
-459.801936491995491
 21
-210.5449781800089113
 31
0.0
  0
LINE
  5
F60D
  8
DETAIL
  6
CONTINUOUS
 62
     5
 10
-459.801936491995491
 20
-210.5449781800089113
 30
0.0
 11
-459.8112530239959028
 21
-210.553360927008697
 31
0.0
  0
LINE
  5
F60E
  8
DETAIL
  6
CONTINUOUS
 62
     5
 10
-459.8112530239959028
 20
-210.553360927008697
 30
0.0
 11
-459.8203821549959116
 21
-210.5620248870091018
 31
0.0
  0
LINE
  5
F60F
  8
DETAIL
  6
CONTINUOUS
 62
     5
 10
-459.8203821549959116
 20
-210.5620248870091018
 30
0.0
 11
-459.8293183069962993
 21
-210.5709597990089037
 31
0.0
  0
LINE
  5
F610
  8
DETAIL
  6
CONTINUOUS
 62
     5
 10
-459.8293183069962993
 20
-210.5709597990089037
 30
0.0
 11
-459.8380559059959864
 21
-210.5801554030095133
 31
0.0
  0
LINE
  5
F611
  8
DETAIL
  6
CONTINUOUS
 62
     5
 10
-459.8380559059959864
 20
-210.5801554030095133
 30
0.0
 11
-459.8465893749961992
 21
-210.5896014380095949
 31
0.0
  0
LINE
  5
F612
  8
DETAIL
  6
CONTINUOUS
 62
     5
 10
-459.8465893749961992
 20
-210.5896014380095949
 30
0.0
 11
-459.8549131379958794
 21
-210.5992876420096138
 31
0.0
  0
LINE
  5
F613
  8
DETAIL
  6
CONTINUOUS
 62
     5
 10
-459.8549131379958794
 20
-210.5992876420096138
 30
0.0
 11
-459.8630216199961751
 21
-210.6092037560092933
 31
0.0
  0
LINE
  5
F614
  8
DETAIL
  6
CONTINUOUS
 62
     5
 10
-459.8630216199961751
 20
-210.6092037560092933
 30
0.0
 11
-459.8709092449961986
 21
-210.6193395180088999
 31
0.0
  0
LINE
  5
F615
  8
DETAIL
  6
CONTINUOUS
 62
     5
 10
-459.8709092449961986
 20
-210.6193395180088999
 30
0.0
 11
-459.878570435996096
 21
-210.6296846670092862
 31
0.0
  0
LINE
  5
F616
  8
DETAIL
  6
CONTINUOUS
 62
     5
 10
-459.878570435996096
 20
-210.6296846670092862
 30
0.0
 11
-459.885999618995811
 21
-210.640228943008907
 31
0.0
  0
LINE
  5
F617
  8
DETAIL
  6
CONTINUOUS
 62
     5
 10
-459.885999618995811
 20
-210.640228943008907
 30
0.0
 11
-459.893191215996012
 21
-210.6509620840087962
 31
0.0
  0
LINE
  5
F618
  8
DETAIL
  6
CONTINUOUS
 62
     5
 10
-459.893191215996012
 20
-210.6509620840087962
 30
0.0
 11
-459.9001396529956196
 21
-210.661873830009398
 31
0.0
  0
LINE
  5
F619
  8
DETAIL
  6
CONTINUOUS
 62
     5
 10
-459.9001396529956196
 20
-210.661873830009398
 30
0.0
 11
-459.9068393519955862
 21
-210.6729539190091884
 31
0.0
  0
LINE
  5
F61A
  8
DETAIL
  6
CONTINUOUS
 62
     5
 10
-459.9068393519955862
 20
-210.6729539190091884
 30
0.0
 11
-459.9132847399959019
 21
-210.6841920920086864
 31
0.0
  0
LINE
  5
F61B
  8
DETAIL
  6
CONTINUOUS
 62
     5
 10
-459.9132847399959019
 20
-210.6841920920086864
 30
0.0
 11
-459.9194702389959275
 21
-210.6955780870094088
 31
0.0
  0
LINE
  5
F61C
  8
DETAIL
  6
CONTINUOUS
 62
     5
 10
-459.9194702389959275
 20
-210.6955780870094088
 30
0.0
 11
-459.9253902729960828
 21
-210.7071016440094979
 31
0.0
  0
LINE
  5
F61D
  8
DETAIL
  6
CONTINUOUS
 62
     5
 10
-459.9253902729960828
 20
-210.7071016440094979
 30
0.0
 11
-459.9310392679963115
 21
-210.7187525000090034
 31
0.0
  0
LINE
  5
F61E
  8
DETAIL
  6
CONTINUOUS
 62
     5
 10
-459.9310392679963115
 20
-210.7187525000090034
 30
0.0
 11
-459.9364116469960209
 21
-210.7305203970090872
 31
0.0
  0
LINE
  5
F61F
  8
DETAIL
  6
CONTINUOUS
 62
     5
 10
-459.9364116469960209
 20
-210.7305203970090872
 30
0.0
 11
-459.9415018329955274
 21
-210.7423950720094012
 31
0.0
  0
LINE
  5
F620
  8
DETAIL
  6
CONTINUOUS
 62
     5
 10
-459.9415018329955274
 20
-210.7423950720094012
 30
0.0
 11
-459.9463042519955138
 21
-210.7543662650095939
 31
0.0
  0
LINE
  5
F621
  8
DETAIL
  6
CONTINUOUS
 62
     5
 10
-459.9463042519955138
 20
-210.7543662650095939
 30
0.0
 11
-459.9508133269964105
 21
-210.7664237150092958
 31
0.0
  0
LINE
  5
F622
  8
DETAIL
  6
CONTINUOUS
 62
     5
 10
-459.9508133269964105
 20
-210.7664237150092958
 30
0.0
 11
-459.9550234829957276
 21
-210.7785571610093029
 31
0.0
  0
LINE
  5
F623
  8
DETAIL
  6
CONTINUOUS
 62
     5
 10
-459.9550234829957276
 20
-210.7785571610093029
 30
0.0
 11
-459.9589291429956006
 21
-210.7907563420085069
 31
0.0
  0
LINE
  5
F624
  8
DETAIL
  6
CONTINUOUS
 62
     5
 10
-459.9589291429956006
 20
-210.7907563420085069
 30
0.0
 11
-459.9625247319954724
 21
-210.803010998009114
 31
0.0
  0
LINE
  5
F625
  8
DETAIL
  6
CONTINUOUS
 62
     5
 10
-459.9625247319954724
 20
-210.803010998009114
 30
0.0
 11
-459.96580467399599
 21
-210.8153108680089076
 31
0.0
  0
LINE
  5
F626
  8
DETAIL
  6
CONTINUOUS
 62
     5
 10
-459.96580467399599
 20
-210.8153108680089076
 30
0.0
 11
-459.9687633939955731
 21
-210.8276456900094047
 31
0.0
  0
LINE
  5
F627
  8
DETAIL
  6
CONTINUOUS
 62
     5
 10
-459.9687633939955731
 20
-210.8276456900094047
 30
0.0
 11
-459.9713953139952878
 21
-210.8400052040088042
 31
0.0
  0
LINE
  5
F628
  8
DETAIL
  6
CONTINUOUS
 62
     5
 10
-459.9713953139952878
 20
-210.8400052040088042
 30
0.0
 11
-459.9736948589952021
 21
-210.8523791490088115
 31
0.0
  0
LINE
  5
F629
  8
DETAIL
  6
CONTINUOUS
 62
     5
 10
-459.9736948589952021
 20
-210.8523791490088115
 30
0.0
 11
-459.9756564539957253
 21
-210.8647572650097004
 31
0.0
  0
LINE
  5
F62A
  8
DETAIL
  6
CONTINUOUS
 62
     5
 10
-459.9756564539957253
 20
-210.8647572650097004
 30
0.0
 11
-459.9772745229955717
 21
-210.8771292890087068
 31
0.0
  0
LINE
  5
F62B
  8
DETAIL
  6
CONTINUOUS
 62
     5
 10
-459.9772745229955717
 20
-210.8771292890087068
 30
0.0
 11
-459.978543488995399
 21
-210.8894849620091918
 31
0.0
  0
LINE
  5
F62C
  8
DETAIL
  6
CONTINUOUS
 62
     5
 10
-459.978543488995399
 20
-210.8894849620091918
 30
0.0
 11
-459.9794577769961847
 21
-210.9018140230091092
 31
0.0
  0
LINE
  5
F62D
  8
DETAIL
  6
CONTINUOUS
 62
     5
 10
-459.9794577769961847
 20
-210.9018140230091092
 30
0.0
 11
-459.9800118109960749
 21
-210.9141062100088959
 31
0.0
  0
LINE
  5
F62E
  8
DETAIL
  6
CONTINUOUS
 62
     5
 10
-459.9800118109960749
 20
-210.9141062100088959
 30
0.0
 11
-459.9821996937052972
 21
-211.0564564486321899
 31
0.0
  0
LINE
  5
F62F
  8
DETAIL
  6
CONTINUOUS
 62
     5
 10
-41.6871207349986435
 20
-58.9857765970009424
 30
0.0
 11
-41.6869013489986102
 21
-58.9704247770005097
 31
0.0
  0
LINE
  5
F630
  8
DETAIL
  6
CONTINUOUS
 62
     5
 10
-41.6869013489986102
 20
-58.9704247770005097
 30
0.0
 11
-41.686183502998567
 21
-58.9550359430004391
 31
0.0
  0
LINE
  5
F631
  8
DETAIL
  6
CONTINUOUS
 62
     5
 10
-41.686183502998567
 20
-58.9550359430004391
 30
0.0
 11
-41.6849717539989797
 21
-58.9396274940008809
 31
0.0
  0
LINE
  5
F632
  8
DETAIL
  6
CONTINUOUS
 62
     5
 10
-41.6849717539989797
 20
-58.9396274940008809
 30
0.0
 11
-41.6832706579989392
 21
-58.9242168290011321
 31
0.0
  0
LINE
  5
F633
  8
DETAIL
  6
CONTINUOUS
 62
     5
 10
-41.6832706579989392
 20
-58.9242168290011321
 30
0.0
 11
-41.6810847699989608
 21
-58.9088213470004121
 31
0.0
  0
LINE
  5
F634
  8
DETAIL
  6
CONTINUOUS
 62
     5
 10
-41.6810847699989608
 20
-58.9088213470004121
 30
0.0
 11
-41.678418645999038
 21
-58.89345845000026
 31
0.0
  0
LINE
  5
F635
  8
DETAIL
  6
CONTINUOUS
 62
     5
 10
-41.678418645999038
 20
-58.89345845000026
 30
0.0
 11
-41.6752768419983113
 21
-58.878145534000403
 31
0.0
  0
LINE
  5
F636
  8
DETAIL
  6
CONTINUOUS
 62
     5
 10
-41.6752768419983113
 20
-58.878145534000403
 30
0.0
 11
-41.6716639149990371
 21
-58.8629000020009698
 31
0.0
  0
LINE
  5
F637
  8
DETAIL
  6
CONTINUOUS
 62
     5
 10
-41.6716639149990371
 20
-58.8629000020009698
 30
0.0
 11
-41.6675844199990024
 21
-58.8477392500008065
 31
0.0
  0
LINE
  5
F638
  8
DETAIL
  6
CONTINUOUS
 62
     5
 10
-41.6675844199990024
 20
-58.8477392500008065
 30
0.0
 11
-41.66304291299911
 21
-58.8326806800005215
 31
0.0
  0
LINE
  5
F639
  8
DETAIL
  6
CONTINUOUS
 62
     5
 10
-41.66304291299911
 20
-58.8326806800005215
 30
0.0
 11
-41.6580439499985005
 21
-58.8177416900007302
 31
0.0
  0
LINE
  5
F63A
  8
DETAIL
  6
CONTINUOUS
 62
     5
 10
-41.6580439499985005
 20
-58.8177416900007302
 30
0.0
 11
-41.6525920879985208
 21
-58.8029396800011384
 31
0.0
  0
LINE
  5
F63B
  8
DETAIL
  6
CONTINUOUS
 62
     5
 10
-41.6525920879985208
 20
-58.8029396800011384
 30
0.0
 11
-41.6466918809992421
 21
-58.7882920500005568
 31
0.0
  0
LINE
  5
F63C
  8
DETAIL
  6
CONTINUOUS
 62
     5
 10
-41.6466918809992421
 20
-58.7882920500005568
 30
0.0
 11
-41.6403478869988177
 21
-58.7738161980005316
 31
0.0
  0
LINE
  5
F63D
  8
DETAIL
  6
CONTINUOUS
 62
     5
 10
-41.6403478869988177
 20
-58.7738161980005316
 30
0.0
 11
-41.6335646599991307
 21
-58.7595295250011986
 31
0.0
  0
LINE
  5
F63E
  8
DETAIL
  6
CONTINUOUS
 62
     5
 10
-41.6335646599991307
 20
-58.7595295250011986
 30
0.0
 11
-41.6263467569988279
 21
-58.7454494290004803
 31
0.0
  0
LINE
  5
F63F
  8
DETAIL
  6
CONTINUOUS
 62
     5
 10
-41.6263467569988279
 20
-58.7454494290004803
 30
0.0
 11
-41.6186987339988193
 21
-58.7315933110003172
 31
0.0
  0
LINE
  5
F640
  8
DETAIL
  6
CONTINUOUS
 62
     5
 10
-41.6186987339988193
 20
-58.7315933110003172
 30
0.0
 11
-41.6106251469991477
 21
-58.7179785690004792
 31
0.0
  0
LINE
  5
F641
  8
DETAIL
  6
CONTINUOUS
 62
     5
 10
-41.6106251469991477
 20
-58.7179785690004792
 30
0.0
 11
-41.6021305509984671
 21
-58.7046226030006366
 31
0.0
  0
LINE
  5
F642
  8
DETAIL
  6
CONTINUOUS
 62
     5
 10
-41.6021305509984671
 20
-58.7046226030006366
 30
0.0
 11
-41.5932195029990908
 21
-58.6915428120009892
 31
0.0
  0
LINE
  5
F643
  8
DETAIL
  6
CONTINUOUS
 62
     5
 10
-41.5932195029990908
 20
-58.6915428120009892
 30
0.0
 11
-41.5838965589991787
 21
-58.6787565970007492
 31
0.0
  0
LINE
  5
F644
  8
DETAIL
  6
CONTINUOUS
 62
     5
 10
-41.5838965589991787
 20
-58.6787565970007492
 30
0.0
 11
-41.5741662739992535
 21
-58.6662813550010398
 31
0.0
  0
LINE
  5
F645
  8
DETAIL
  6
CONTINUOUS
 62
     5
 10
-41.5741662739992535
 20
-58.6662813550010398
 30
0.0
 11
-41.5640332049988501
 21
-58.6541344880006292
 31
0.0
  0
LINE
  5
F646
  8
DETAIL
  6
CONTINUOUS
 62
     5
 10
-41.5640332049988501
 20
-58.6541344880006292
 30
0.0
 11
-41.5535019069984628
 21
-58.6423333930006265
 31
0.0
  0
LINE
  5
F647
  8
DETAIL
  6
CONTINUOUS
 62
     5
 10
-41.5535019069984628
 20
-58.6423333930006265
 30
0.0
 11
-41.5425769359990227
 21
-58.6308954710002581
 31
0.0
  0
LINE
  5
F648
  8
DETAIL
  6
CONTINUOUS
 62
     5
 10
-41.5425769359990227
 20
-58.6308954710002581
 30
0.0
 11
-41.5312558719988303
 21
-58.6198275020005894
 31
0.0
  0
LINE
  5
F649
  8
DETAIL
  6
CONTINUOUS
 62
     5
 10
-41.5312558719988303
 20
-58.6198275020005894
 30
0.0
 11
-41.5195627759985726
 21
-58.6091463480006496
 31
0.0
  0
LINE
  5
F64A
  8
DETAIL
  6
CONTINUOUS
 62
     5
 10
-41.5195627759985726
 20
-58.6091463480006496
 30
0.0
 11
-41.507515352998773
 21
-58.5988576470008411
 31
0.0
  0
LINE
  5
F64B
  8
DETAIL
  6
CONTINUOUS
 62
     5
 10
-41.507515352998773
 20
-58.5988576470008411
 30
0.0
 11
-41.495131307999138
 21
-58.5889670350006782
 31
0.0
  0
LINE
  5
F64C
  8
DETAIL
  6
CONTINUOUS
 62
     5
 10
-41.495131307999138
 20
-58.5889670350006782
 30
0.0
 11
-41.4824283469988515
 21
-58.579480151000098
 31
0.0
  0
LINE
  5
F64D
  8
DETAIL
  6
CONTINUOUS
 62
     5
 10
-41.4824283469988515
 20
-58.579480151000098
 30
0.0
 11
-41.4694241749994035
 21
-58.5704026300008991
 31
0.0
  0
LINE
  5
F64E
  8
DETAIL
  6
CONTINUOUS
 62
     5
 10
-41.4694241749994035
 20
-58.5704026300008991
 30
0.0
 11
-41.4561364959990826
 21
-58.5617401090003113
 31
0.0
  0
LINE
  5
F64F
  8
DETAIL
  6
CONTINUOUS
 62
     5
 10
-41.4561364959990826
 20
-58.5617401090003113
 30
0.0
 11
-41.4425830169984692
 21
-58.553498227000091
 31
0.0
  0
LINE
  5
F650
  8
DETAIL
  6
CONTINUOUS
 62
     5
 10
-41.4425830169984692
 20
-58.553498227000091
 30
0.0
 11
-41.4287814409990389
 21
-58.5456826190002175
 31
0.0
  0
LINE
  5
F651
  8
DETAIL
  6
CONTINUOUS
 62
     5
 10
-41.4287814409990389
 20
-58.5456826190002175
 30
0.0
 11
-41.4147494739991089
 21
-58.5382989230001769
 31
0.0
  0
LINE
  5
F652
  8
DETAIL
  6
CONTINUOUS
 62
     5
 10
-41.4147494739991089
 20
-58.5382989230001769
 30
0.0
 11
-41.4005048219996681
 21
-58.5313527760008583
 31
0.0
  0
LINE
  5
F653
  8
DETAIL
  6
CONTINUOUS
 62
     5
 10
-41.4005048219996681
 20
-58.5313527760008583
 30
0.0
 11
-41.3860651889990478
 21
-58.5248498140008522
 31
0.0
  0
LINE
  5
F654
  8
DETAIL
  6
CONTINUOUS
 62
     5
 10
-41.3860651889990478
 20
-58.5248498140008522
 30
0.0
 11
-41.3714482799987309
 21
-58.5187956760009911
 31
0.0
  0
LINE
  5
F655
  8
DETAIL
  6
CONTINUOUS
 62
     5
 10
-41.3714482799987309
 20
-58.5187956760009911
 30
0.0
 11
-41.3566718009988108
 21
-58.5131959970003734
 31
0.0
  0
LINE
  5
F656
  8
DETAIL
  6
CONTINUOUS
 62
     5
 10
-41.3566718009988108
 20
-58.5131959970003734
 30
0.0
 11
-41.3417534559994166
 21
-58.5080564150011924
 31
0.0
  0
LINE
  5
F657
  8
DETAIL
  6
CONTINUOUS
 62
     5
 10
-41.3417534559994166
 20
-58.5080564150011924
 30
0.0
 11
-41.3267109509988586
 21
-58.5033825660011573
 31
0.0
  0
LINE
  5
F658
  8
DETAIL
  6
CONTINUOUS
 62
     5
 10
-41.3267109509988586
 20
-58.5033825660011573
 30
0.0
 11
-41.3115619909985909
 21
-58.4991800890002196
 31
0.0
  0
LINE
  5
F659
  8
DETAIL
  6
CONTINUOUS
 62
     5
 10
-41.3115619909985909
 20
-58.4991800890002196
 30
0.0
 11
-41.2963242809992082
 21
-58.4954546200006007
 31
0.0
  0
LINE
  5
F65A
  8
DETAIL
  6
CONTINUOUS
 62
     5
 10
-41.2963242809992082
 20
-58.4954546200006007
 30
0.0
 11
-41.2810155259985478
 21
-58.4922117950009124
 31
0.0
  0
LINE
  5
F65B
  8
DETAIL
  6
CONTINUOUS
 62
     5
 10
-41.2810155259985478
 20
-58.4922117950009124
 30
0.0
 11
-41.2656534309990022
 21
-58.4894572520006406
 31
0.0
  0
LINE
  5
F65C
  8
DETAIL
  6
CONTINUOUS
 62
     5
 10
-41.2656534309990022
 20
-58.4894572520006406
 30
0.0
 11
-41.250255700998423
 21
-58.4871966280006816
 31
0.0
  0
LINE
  5
F65D
  8
DETAIL
  6
CONTINUOUS
 62
     5
 10
-41.250255700998423
 20
-58.4871966280006816
 30
0.0
 11
-41.2348400419987229
 21
-58.4854355600009512
 31
0.0
  0
LINE
  5
F65E
  8
DETAIL
  6
CONTINUOUS
 62
     5
 10
-41.2348400419987229
 20
-58.4854355600009512
 30
0.0
 11
-41.2194241579991285
 21
-58.4841796850005267
 31
0.0
  0
LINE
  5
F65F
  8
DETAIL
  6
CONTINUOUS
 62
     5
 10
-41.2194241579991285
 20
-58.4841796850005267
 30
0.0
 11
-41.2040257549988311
 21
-58.4834346400002687
 31
0.0
  0
LINE
  5
F660
  8
DETAIL
  6
CONTINUOUS
 62
     5
 10
-41.2040257549988311
 20
-58.4834346400002687
 30
0.0
 11
-41.1886625369988906
 21
-58.4832060620010381
 31
0.0
  0
LINE
  5
F661
  8
DETAIL
  6
CONTINUOUS
 62
     5
 10
-348.4391803359986284
 20
-76.4394221110069338
 30
0.0
 11
-348.4245176619987774
 21
-76.5321241390065552
 31
0.0
  0
LINE
  5
F662
  8
DETAIL
  6
CONTINUOUS
 62
     5
 10
-348.4245176619987774
 20
-76.5321241390065552
 30
0.0
 11
-348.3819624419984962
 21
-76.6157273260068905
 31
0.0
  0
LINE
  5
F663
  8
DETAIL
  6
CONTINUOUS
 62
     5
 10
-348.3819624419984962
 20
-76.6157273260068905
 30
0.0
 11
-348.3156730719983898
 21
-76.6820621670067339
 31
0.0
  0
LINE
  5
F664
  8
DETAIL
  6
CONTINUOUS
 62
     5
 10
-348.3156730719983898
 20
-76.6820621670067339
 30
0.0
 11
-348.2321271919981882
 21
-76.7246465770067516
 31
0.0
  0
LINE
  5
F665
  8
DETAIL
  6
CONTINUOUS
 62
     5
 10
-348.2321271919981882
 20
-76.7246465770067516
 30
0.0
 11
-348.1394887089982149
 21
-76.7393193090065324
 31
0.0
  0
LINE
  5
F666
  8
DETAIL
  6
CONTINUOUS
 62
     5
 10
-358.1524948629985943
 20
-76.4794941410073079
 30
0.0
 11
-358.1280191409986742
 21
-76.5616486360067938
 31
0.0
  0
LINE
  5
F667
  8
DETAIL
  6
CONTINUOUS
 62
     5
 10
-358.1280191409986742
 20
-76.5616486360067938
 30
0.0
 11
-358.0803289579989723
 21
-76.6341625410068445
 31
0.0
  0
LINE
  5
F668
  8
DETAIL
  6
CONTINUOUS
 62
     5
 10
-358.0803289579989723
 20
-76.6341625410068445
 30
0.0
 11
-358.0134804299987081
 21
-76.6908684500067466
 31
0.0
  0
LINE
  5
F669
  8
DETAIL
  6
CONTINUOUS
 62
     5
 10
-358.0134804299987081
 20
-76.6908684500067466
 30
0.0
 11
-357.93315911299851
 21
-76.7269434480076598
 31
0.0
  0
LINE
  5
F66A
  8
DETAIL
  6
CONTINUOUS
 62
     5
 10
-357.93315911299851
 20
-76.7269434480076598
 30
0.0
 11
-357.8461964439985081
 21
-76.7393193090065324
 31
0.0
  0
LINE
  5
F66B
  8
DETAIL
  6
CONTINUOUS
 62
     5
 10
-41.433589364999527
 20
-59.681985118000739
 30
0.0
 11
-41.4403489529986402
 21
-59.7022991440007829
 31
0.0
  0
LINE
  5
F66C
  8
DETAIL
  6
CONTINUOUS
 62
     5
 10
-41.4403489529986402
 20
-59.7022991440007829
 30
0.0
 11
-41.445642436999151
 21
-59.7230444660008288
 31
0.0
  0
LINE
  5
F66D
  8
DETAIL
  6
CONTINUOUS
 62
     5
 10
-41.445642436999151
 20
-59.7230444660008288
 30
0.0
 11
-41.4494428659991101
 21
-59.7441154610005398
 31
0.0
  0
LINE
  5
F66E
  8
DETAIL
  6
CONTINUOUS
 62
     5
 10
-41.4494428659991101
 20
-59.7441154610005398
 30
0.0
 11
-41.4517308909989808
 21
-59.7654048490003333
 31
0.0
  0
LINE
  5
F66F
  8
DETAIL
  6
CONTINUOUS
 62
     5
 10
-41.4517308909989808
 20
-59.7654048490003333
 30
0.0
 11
-41.4524948629987193
 21
-59.7868042370009718
 31
0.0
  0
LINE
  5
F670
  8
DETAIL
  6
CONTINUOUS
 62
     5
 10
-28.9472811159985213
 20
-76.479494141000032
 30
0.0
 11
-28.9717568379992407
 21
-76.5616486360004274
 31
0.0
  0
LINE
  5
F671
  8
DETAIL
  6
CONTINUOUS
 62
     5
 10
-28.9717568379992407
 20
-76.5616486360004274
 30
0.0
 11
-29.0194470209980899
 21
-76.6341625410004781
 31
0.0
  0
LINE
  5
F672
  8
DETAIL
  6
CONTINUOUS
 62
     5
 10
-29.0194470209980899
 20
-76.6341625410004781
 30
0.0
 11
-29.0862955489983506
 21
-76.6908684500003801
 31
0.0
  0
LINE
  5
F673
  8
DETAIL
  6
CONTINUOUS
 62
     5
 10
-29.0862955489983506
 20
-76.6908684500003801
 30
0.0
 11
-29.1666168659985487
 21
-76.7269434480003838
 31
0.0
  0
LINE
  5
F674
  8
DETAIL
  6
CONTINUOUS
 62
     5
 10
-29.1666168659985487
 20
-76.7269434480003838
 30
0.0
 11
-29.2535795339990692
 21
-76.739319309000166
 31
0.0
  0
LINE
  5
F675
  8
DETAIL
  6
CONTINUOUS
 62
     5
 10
-28.9472811159985213
 20
-59.7868042370000694
 30
0.0
 11
-28.9480450879991587
 21
-59.7654048490003333
 31
0.0
  0
LINE
  5
F676
  8
DETAIL
  6
CONTINUOUS
 62
     5
 10
-28.9480450879991587
 20
-59.7654048490003333
 30
0.0
 11
-28.9503331129990293
 21
-59.7441154610005398
 31
0.0
  0
LINE
  5
F677
  8
DETAIL
  6
CONTINUOUS
 62
     5
 10
-28.9503331129990293
 20
-59.7441154610005398
 30
0.0
 11
-28.9541335419989991
 21
-59.7230444659999122
 31
0.0
  0
LINE
  5
F678
  8
DETAIL
  6
CONTINUOUS
 62
     5
 10
-28.9541335419989991
 20
-59.7230444659999122
 30
0.0
 11
-28.9594270259985898
 21
-59.7022991439998805
 31
0.0
  0
LINE
  5
F679
  8
DETAIL
  6
CONTINUOUS
 62
     5
 10
-28.9594270259985898
 20
-59.7022991439998805
 30
0.0
 11
-28.9661866129990813
 21
-59.681985118000739
 31
0.0
  0
LINE
  5
F67A
  8
DETAIL
  6
CONTINUOUS
 62
     5
 10
-31.7391803359987499
 20
-76.4394221110005674
 30
0.0
 11
-31.7245176619990197
 21
-76.5321241390001887
 31
0.0
  0
LINE
  5
F67B
  8
DETAIL
  6
CONTINUOUS
 62
     5
 10
-31.7245176619990197
 20
-76.5321241390001887
 30
0.0
 11
-31.6819624419986212
 21
-76.615727326000524
 31
0.0
  0
LINE
  5
F67C
  8
DETAIL
  6
CONTINUOUS
 62
     5
 10
-31.6819624419986212
 20
-76.615727326000524
 30
0.0
 11
-31.6156730719985717
 21
-76.6820621670003675
 31
0.0
  0
LINE
  5
F67D
  8
DETAIL
  6
CONTINUOUS
 62
     5
 10
-31.6156730719985717
 20
-76.6820621670003675
 30
0.0
 11
-31.5321271919983701
 21
-76.7246465770003852
 31
0.0
  0
LINE
  5
F67E
  8
DETAIL
  6
CONTINUOUS
 62
     5
 10
-31.5321271919983701
 20
-76.7246465770003852
 30
0.0
 11
-31.4394887089984003
 21
-76.739319309000166
 31
0.0
  0
LINE
  5
F67F
  8
DETAIL
  6
CONTINUOUS
 62
     5
 10
414.8691581519996134
 20
-3.9167815829914612
 30
0.0
 11
415.4050648869996962
 21
-3.8973916239910968
 31
0.0
  0
LINE
  5
F680
  8
DETAIL
  6
CONTINUOUS
 62
     5
 10
415.4050648869996962
 20
-3.8973916239910968
 30
0.0
 11
415.966945351999982
 21
-3.8701359409915308
 31
0.0
  0
LINE
  5
F681
  8
DETAIL
  6
CONTINUOUS
 62
     5
 10
415.966945351999982
 20
-3.8701359409915308
 30
0.0
 11
416.528484000000276
 21
-3.8363553949911871
 31
0.0
  0
LINE
  5
F682
  8
DETAIL
  6
CONTINUOUS
 62
     5
 10
416.528484000000276
 20
-3.8363553949911871
 30
0.0
 11
417.0896807780000017
 21
-3.7966134229909581
 31
0.0
  0
LINE
  5
F683
  8
DETAIL
  6
CONTINUOUS
 62
     5
 10
417.0896807780000017
 20
-3.7966134229909581
 30
0.0
 11
417.6505356329997767
 21
-3.751473459990847
 31
0.0
  0
LINE
  5
F684
  8
DETAIL
  6
CONTINUOUS
 62
     5
 10
417.6505356329997767
 20
-3.751473459990847
 30
0.0
 11
418.2110485140000833
 21
-3.7014989419913031
 31
0.0
  0
LINE
  5
F685
  8
DETAIL
  6
CONTINUOUS
 62
     5
 10
418.2110485140000833
 20
-3.7014989419913031
 30
0.0
 11
418.7712193670002989
 21
-3.6472533049909539
 31
0.0
  0
LINE
  5
F686
  8
DETAIL
  6
CONTINUOUS
 62
     5
 10
418.7712193670002989
 20
-3.6472533049909539
 30
0.0
 11
419.3310481400002914
 21
-3.5892999859916008
 31
0.0
  0
LINE
  5
F687
  8
DETAIL
  6
CONTINUOUS
 62
     5
 10
419.3310481400002914
 20
-3.5892999859916008
 30
0.0
 11
419.8905347809994737
 21
-3.5282024199914299
 31
0.0
  0
LINE
  5
F688
  8
DETAIL
  6
CONTINUOUS
 62
     5
 10
419.8905347809994737
 20
-3.5282024199914299
 30
0.0
 11
420.4496792380003853
 21
-3.4645240429908881
 31
0.0
  0
LINE
  5
F689
  8
DETAIL
  6
CONTINUOUS
 62
     5
 10
420.4496792380003853
 20
-3.4645240429908881
 30
0.0
 11
421.0084814570000162
 21
-3.398828291990867
 31
0.0
  0
LINE
  5
F68A
  8
DETAIL
  6
CONTINUOUS
 62
     5
 10
421.0084814570000162
 20
-3.398828291990867
 30
0.0
 11
422.208395845999803
 21
-3.2554391949906849
 31
0.0
  0
LINE
  5
F68B
  8
DETAIL
  6
CONTINUOUS
 62
     5
 10
-426.1716124329994955
 20
-10.5980565520085293
 30
0.0
 11
-426.699083597999504
 21
-10.6190243750079407
 31
0.0
  0
LINE
  5
F68C
  8
DETAIL
  6
CONTINUOUS
 62
     5
 10
-426.699083597999504
 20
-10.6190243750079407
 30
0.0
 11
-427.2272402119996855
 21
-10.6292116880085796
 31
0.0
  0
LINE
  5
F68D
  8
DETAIL
  6
CONTINUOUS
 62
     5
 10
-427.2272402119996855
 20
-10.6292116880085796
 30
0.0
 11
-427.7558041920000846
 21
-10.6286838640080497
 31
0.0
  0
LINE
  5
F68E
  8
DETAIL
  6
CONTINUOUS
 62
     5
 10
-427.7558041920000846
 20
-10.6286838640080497
 30
0.0
 11
-428.2844974560002811
 21
-10.6175062770089408
 31
0.0
  0
LINE
  5
F68F
  8
DETAIL
  6
CONTINUOUS
 62
     5
 10
-428.2844974560002811
 20
-10.6175062770089408
 30
0.0
 11
-428.8130419210000923
 21
-10.5957442980088601
 31
0.0
  0
LINE
  5
F690
  8
DETAIL
  6
CONTINUOUS
 62
     5
 10
-428.8130419210000923
 20
-10.5957442980088601
 30
0.0
 11
-429.341159501999698
 21
-10.5634633020090405
 31
0.0
  0
LINE
  5
F691
  8
DETAIL
  6
CONTINUOUS
 62
     5
 10
-429.341159501999698
 20
-10.5634633020090405
 30
0.0
 11
-429.8685721179999746
 21
-10.5207286600088992
 31
0.0
  0
LINE
  5
F692
  8
DETAIL
  6
CONTINUOUS
 62
     5
 10
-429.8685721179999746
 20
-10.5207286600088992
 30
0.0
 11
-430.3950016850002953
 21
-10.4676057460082994
 31
0.0
  0
LINE
  5
F693
  8
DETAIL
  6
CONTINUOUS
 62
     5
 10
-430.3950016850002953
 20
-10.4676057460082994
 30
0.0
 11
-430.920170120000023
 21
-10.40415993200895
 31
0.0
  0
LINE
  5
F694
  8
DETAIL
  6
CONTINUOUS
 62
     5
 10
-430.920170120000023
 20
-10.40415993200895
 30
0.0
 11
-431.443799339999714
 21
-10.3304565920088791
 31
0.0
  0
LINE
  5
F695
  8
DETAIL
  6
CONTINUOUS
 62
     5
 10
-431.443799339999714
 20
-10.3304565920088791
 30
0.0
 11
-431.9656112619995838
 21
-10.2465610980088897
 31
0.0
  0
LINE
  5
F696
  8
DETAIL
  6
CONTINUOUS
 62
     5
 10
-431.9656112619995838
 20
-10.2465610980088897
 30
0.0
 11
-432.4767628999998124
 21
-10.1542084070088094
 31
0.0
  0
LINE
  5
F697
  8
DETAIL
  6
CONTINUOUS
 62
     5
 10
-432.4767628999998124
 20
-10.1542084070088094
 30
0.0
 11
-432.9858452420003232
 21
-10.0522911650086808
 31
0.0
  0
LINE
  5
F698
  8
DETAIL
  6
CONTINUOUS
 62
     5
 10
-432.9858452420003232
 20
-10.0522911650086808
 30
0.0
 11
-433.4928154380003775
 21
-9.9410384450084166
 31
0.0
  0
LINE
  5
F699
  8
DETAIL
  6
CONTINUOUS
 62
     5
 10
-433.4928154380003775
 20
-9.9410384450084166
 30
0.0
 11
-433.9976306389997944
 21
-9.8206793220088002
 31
0.0
  0
LINE
  5
F69A
  8
DETAIL
  6
CONTINUOUS
 62
     5
 10
-433.9976306389997944
 20
-9.8206793220088002
 30
0.0
 11
-434.5002479959994162
 21
-9.6914428690088243
 31
0.0
  0
LINE
  5
F69B
  8
DETAIL
  6
CONTINUOUS
 62
     5
 10
-434.5002479959994162
 20
-9.6914428690088243
 30
0.0
 11
-435.0550935090004145
 21
-9.5379729330088594
 31
0.0
  0
LINE
  5
F69C
  8
DETAIL
  6
CONTINUOUS
 62
     5
 10
-435.0550935090004145
 20
-9.5379729330088594
 30
0.0
 11
-435.6069990019996112
 21
-9.3740667150086665
 31
0.0
  0
LINE
  5
F69D
  8
DETAIL
  6
CONTINUOUS
 62
     5
 10
-435.6069990019996112
 20
-9.3740667150086665
 30
0.0
 11
-436.1557810980002046
 21
-9.1999275590087564
 31
0.0
  0
LINE
  5
F69E
  8
DETAIL
  6
CONTINUOUS
 62
     5
 10
-436.1557810980002046
 20
-9.1999275590087564
 30
0.0
 11
-436.7012564189998898
 21
-9.0157588100082648
 31
0.0
  0
LINE
  5
F69F
  8
DETAIL
  6
CONTINUOUS
 62
     5
 10
-436.7012564189998898
 20
-9.0157588100082648
 30
0.0
 11
-437.1607433750003793
 21
-8.8519884060087861
 31
0.0
  0
LINE
  5
F6A0
  8
DETAIL
  6
CONTINUOUS
 62
     5
 10
-437.1607433750003793
 20
-8.8519884060087861
 30
0.0
 11
-437.6176421459994117
 21
-8.6811850660087657
 31
0.0
  0
LINE
  5
F6A1
  8
DETAIL
  6
CONTINUOUS
 62
     5
 10
-437.6176421459994117
 20
-8.6811850660087657
 30
0.0
 11
-438.0718704620002768
 21
-8.5033710570087351
 31
0.0
  0
LINE
  5
F6A2
  8
DETAIL
  6
CONTINUOUS
 62
     5
 10
-438.0718704620002768
 20
-8.5033710570087351
 30
0.0
 11
-438.5233460529997842
 21
-8.3185686460092256
 31
0.0
  0
LINE
  5
F6A3
  8
DETAIL
  6
CONTINUOUS
 62
     5
 10
-438.5233460529997842
 20
-8.3185686460092256
 30
0.0
 11
-438.9939905139999041
 21
-8.1169779560095776
 31
0.0
  0
LINE
  5
F6A4
  8
DETAIL
  6
CONTINUOUS
 62
     5
 10
-438.9939905139999041
 20
-8.1169779560095776
 30
0.0
 11
-439.4607881700002849
 21
-7.9067840610086932
 31
0.0
  0
LINE
  5
F6A5
  8
DETAIL
  6
CONTINUOUS
 62
     5
 10
-439.4607881700002849
 20
-7.9067840610086932
 30
0.0
 11
-439.9230145030005019
 21
-7.6870558290083864
 31
0.0
  0
LINE
  5
F6A6
  8
DETAIL
  6
CONTINUOUS
 62
     5
 10
-439.9230145030005019
 20
-7.6870558290083864
 30
0.0
 11
-440.1876415109999812
 21
-7.5553270660093403
 31
0.0
  0
LINE
  5
F6A7
  8
DETAIL
  6
CONTINUOUS
 62
     5
 10
-440.1876415109999812
 20
-7.5553270660093403
 30
0.0
 11
-440.4502914800003737
 21
-7.4193652780086259
 31
0.0
  0
LINE
  5
F6A8
  8
DETAIL
  6
CONTINUOUS
 62
     5
 10
-440.4502914800003737
 20
-7.4193652780086259
 30
0.0
 11
-440.6542836710004849
 21
-7.309163535008337
 31
0.0
  0
LINE
  5
F6A9
  8
DETAIL
  6
CONTINUOUS
 62
     5
 10
-440.6542836710004849
 20
-7.309163535008337
 30
0.0
 11
-440.8551700950001759
 21
-7.1941264370088902
 31
0.0
  0
LINE
  5
F6AA
  8
DETAIL
  6
CONTINUOUS
 62
     5
 10
-440.8551700950001759
 20
-7.1941264370088902
 30
0.0
 11
-440.9951291830001878
 21
-7.1083301090084197
 31
0.0
  0
LINE
  5
F6AB
  8
DETAIL
  6
CONTINUOUS
 62
     5
 10
-440.9951291830001878
 20
-7.1083301090084197
 30
0.0
 11
-441.1328092969998238
 21
-7.0174912090087673
 31
0.0
  0
LINE
  5
F6AC
  8
DETAIL
  6
CONTINUOUS
 62
     5
 10
-441.1328092969998238
 20
-7.0174912090087673
 30
0.0
 11
-441.1852876689999903
 21
-6.980152993009141
 31
0.0
  0
LINE
  5
F6AD
  8
DETAIL
  6
CONTINUOUS
 62
     5
 10
-441.1852876689999903
 20
-6.980152993009141
 30
0.0
 11
-441.2349760730003254
 21
-6.9396853450089111
 31
0.0
  0
LINE
  5
F6AE
  8
DETAIL
  6
CONTINUOUS
 62
     5
 10
-441.2349760730003254
 20
-6.9396853450089111
 30
0.0
 11
-441.2794015290000971
 21
-6.89397641900905
 31
0.0
  0
LINE
  5
F6AF
  8
DETAIL
  6
CONTINUOUS
 62
     5
 10
-357.8395047039985002
 20
-59.5000000000072689
 30
0.0
 11
-357.8915582599992717
 21
-59.5041946470073526
 31
0.0
  0
LINE
  5
F6B0
  8
DETAIL
  6
CONTINUOUS
 62
     5
 10
-357.8915582599992717
 20
-59.5041946470073526
 30
0.0
 11
-357.9426493889986887
 21
-59.5166528910067427
 31
0.0
  0
LINE
  5
F6B1
  8
DETAIL
  6
CONTINUOUS
 62
     5
 10
-357.9426493889986887
 20
-59.5166528910067427
 30
0.0
 11
-357.9912470979988939
 21
-59.5370014100071785
 31
0.0
  0
LINE
  5
F6B2
  8
DETAIL
  6
CONTINUOUS
 62
     5
 10
-357.9912470979988939
 20
-59.5370014100071785
 30
0.0
 11
-358.0358951119987978
 21
-59.5646304400070221
 31
0.0
  0
LINE
  5
F6B3
  8
DETAIL
  6
CONTINUOUS
 62
     5
 10
-358.0358951119987978
 20
-59.5646304400070221
 30
0.0
 11
-358.0752555089994189
 21
-59.5987120520076132
 31
0.0
  0
LINE
  5
F6B4
  8
DETAIL
  6
CONTINUOUS
 62
     5
 10
-358.0752555089994189
 20
-59.5987120520076132
 30
0.0
 11
-358.1081488199989167
 21
-59.6382249580074131
 31
0.0
  0
LINE
  5
F6B5
  8
DETAIL
  6
CONTINUOUS
 62
     5
 10
-358.1081488199989167
 20
-59.6382249580074131
 30
0.0
 11
-358.1335893649983859
 21
-59.6819851180071126
 31
0.0
  0
LINE
  5
F6B6
  8
DETAIL
  6
CONTINUOUS
 62
     5
 10
-41.1395047039986821
 20
-59.5
 30
0.0
 11
-41.191558259998601
 21
-59.504194647000979
 31
0.0
  0
LINE
  5
F6B7
  8
DETAIL
  6
CONTINUOUS
 62
     5
 10
-41.191558259998601
 20
-59.504194647000979
 30
0.0
 11
-41.2426493889988635
 21
-59.5166528910012786
 31
0.0
  0
LINE
  5
F6B8
  8
DETAIL
  6
CONTINUOUS
 62
     5
 10
-41.2426493889988635
 20
-59.5166528910012786
 30
0.0
 11
-41.2912470979990687
 21
-59.537001410000812
 31
0.0
  0
LINE
  5
F6B9
  8
DETAIL
  6
CONTINUOUS
 62
     5
 10
-41.2912470979990687
 20
-59.537001410000812
 30
0.0
 11
-41.3358951119989797
 21
-59.5646304400006628
 31
0.0
  0
LINE
  5
F6BA
  8
DETAIL
  6
CONTINUOUS
 62
     5
 10
-41.3358951119989797
 20
-59.5646304400006628
 30
0.0
 11
-41.3752555089986274
 21
-59.5987120520003373
 31
0.0
  0
LINE
  5
F6BB
  8
DETAIL
  6
CONTINUOUS
 62
     5
 10
-41.3752555089986274
 20
-59.5987120520003373
 30
0.0
 11
-41.4081488199990275
 21
-59.63822495800013
 31
0.0
  0
LINE
  5
F6BC
  8
DETAIL
  6
CONTINUOUS
 62
     5
 10
-41.4081488199990275
 20
-59.63822495800013
 30
0.0
 11
-41.433589364999527
 21
-59.681985118000739
 31
0.0
  0
LINE
  5
F6BD
  8
DETAIL
  6
CONTINUOUS
 62
     5
 10
422.208395845999803
 20
-3.2554391949906849
 30
0.0
 11
422.80874118999958
 21
-3.1866147449909472
 31
0.0
  0
LINE
  5
F6BE
  8
DETAIL
  6
CONTINUOUS
 62
     5
 10
422.80874118999958
 20
-3.1866147449909472
 30
0.0
 11
423.4098683000000847
 21
-3.1225766179913981
 31
0.0
  0
LINE
  5
F6BF
  8
DETAIL
  6
CONTINUOUS
 62
     5
 10
423.4098683000000847
 20
-3.1225766179913981
 30
0.0
 11
423.6965950860002863
 21
-3.0944638739911161
 31
0.0
  0
LINE
  5
F6C0
  8
DETAIL
  6
CONTINUOUS
 62
     5
 10
423.6965950860002863
 20
-3.0944638739911161
 30
0.0
 11
423.9835638240001003
 21
-3.0686607339903271
 31
0.0
  0
LINE
  5
F6C1
  8
DETAIL
  6
CONTINUOUS
 62
     5
 10
423.9835638240001003
 20
-3.0686607339903271
 30
0.0
 11
424.2707500670002787
 21
-3.0459017959910848
 31
0.0
  0
LINE
  5
F6C2
  8
DETAIL
  6
CONTINUOUS
 62
     5
 10
424.2707500670002787
 20
-3.0459017959910848
 30
0.0
 11
424.5581293679996975
 21
-3.0269216559909178
 31
0.0
  0
LINE
  5
F6C3
  8
DETAIL
  6
CONTINUOUS
 62
     5
 10
424.5581293679996975
 20
-3.0269216559909178
 30
0.0
 11
424.8456772800000181
 21
-3.0124549119909712
 31
0.0
  0
LINE
  5
F6C4
  8
DETAIL
  6
CONTINUOUS
 62
     5
 10
424.8456772800000181
 20
-3.0124549119909712
 30
0.0
 11
425.1333693560000029
 21
-3.0032361609910359
 31
0.0
  0
LINE
  5
F6C5
  8
DETAIL
  6
CONTINUOUS
 62
     5
 10
425.1333693560000029
 20
-3.0032361609910359
 30
0.0
 11
425.4211811490002901
 21
-2.9999999999909051
 31
0.0
  0
LINE
  5
F6C6
  8
DETAIL
  6
CONTINUOUS
 62
     5
 10
-355.6602872699987188
 20
-76.7393193090065324
 30
0.0
 11
-355.5676487869986886
 21
-76.7246465770067516
 31
0.0
  0
LINE
  5
F6C7
  8
DETAIL
  6
CONTINUOUS
 62
     5
 10
-355.5676487869986886
 20
-76.7246465770067516
 30
0.0
 11
-355.484102906998487
 21
-76.6820621670067339
 31
0.0
  0
LINE
  5
F6C8
  8
DETAIL
  6
CONTINUOUS
 62
     5
 10
-355.484102906998487
 20
-76.6820621670067339
 30
0.0
 11
-355.4178135369983806
 21
-76.6157273260068905
 31
0.0
  0
LINE
  5
F6C9
  8
DETAIL
  6
CONTINUOUS
 62
     5
 10
-355.4178135369983806
 20
-76.6157273260068905
 30
0.0
 11
-355.3752583169988952
 21
-76.5321241390065552
 31
0.0
  0
LINE
  5
F6CA
  8
DETAIL
  6
CONTINUOUS
 62
     5
 10
-355.3752583169988952
 20
-76.5321241390065552
 30
0.0
 11
-355.3605956429992148
 21
-76.4394221110069338
 31
0.0
  0
LINE
  5
F6CB
  8
DETAIL
  6
CONTINUOUS
 62
     5
 10
-38.9602872699988509
 20
-76.739319309000166
 30
0.0
 11
-38.8676487869988705
 21
-76.7246465770003852
 31
0.0
  0
LINE
  5
F6CC
  8
DETAIL
  6
CONTINUOUS
 62
     5
 10
-38.8676487869988705
 20
-76.7246465770003852
 30
0.0
 11
-38.7841029069986689
 21
-76.6820621670003675
 31
0.0
  0
LINE
  5
F6CD
  8
DETAIL
  6
CONTINUOUS
 62
     5
 10
-38.7841029069986689
 20
-76.6820621670003675
 30
0.0
 11
-38.7178135369986194
 21
-76.615727326000524
 31
0.0
  0
LINE
  5
F6CE
  8
DETAIL
  6
CONTINUOUS
 62
     5
 10
-38.7178135369986194
 20
-76.615727326000524
 30
0.0
 11
-38.6752583169982174
 21
-76.5321241390001887
 31
0.0
  0
LINE
  5
F6CF
  8
DETAIL
  6
CONTINUOUS
 62
     5
 10
-38.6752583169982174
 20
-76.5321241390001887
 30
0.0
 11
-38.6605956429984872
 21
-76.4394221110005674
 31
0.0
  0
LINE
  5
F6D0
  8
DETAIL
  6
CONTINUOUS
 62
     5
 10
277.7396007200014196
 20
-76.7393193089937995
 30
0.0
 11
277.8322392030012793
 21
-76.7246465769940187
 31
0.0
  0
LINE
  5
F6D1
  8
DETAIL
  6
CONTINUOUS
 62
     5
 10
277.8322392030012793
 20
-76.7246465769940187
 30
0.0
 11
277.9157850830014809
 21
-76.682062166994001
 31
0.0
  0
LINE
  5
F6D2
  8
DETAIL
  6
CONTINUOUS
 62
     5
 10
277.9157850830014809
 20
-76.682062166994001
 30
0.0
 11
277.9820744530015872
 21
-76.6157273259941576
 31
0.0
  0
LINE
  5
F6D3
  8
DETAIL
  6
CONTINUOUS
 62
     5
 10
277.9820744530015872
 20
-76.6157273259941576
 30
0.0
 11
278.0246296730010727
 21
-76.5321241389938223
 31
0.0
  0
LINE
  5
F6D4
  8
DETAIL
  6
CONTINUOUS
 62
     5
 10
278.0246296730010727
 20
-76.5321241389938223
 30
0.0
 11
278.0392923470017195
 21
-76.4394221109942009
 31
0.0
  0
LINE
  5
F6D5
  8
DETAIL
  6
CONTINUOUS
 62
     5
 10
430.2321790320002037
 20
-4.7302232769907269
 30
0.0
 11
430.1977992669998798
 21
-4.7830485979911819
 31
0.0
  0
LINE
  5
F6D6
  8
DETAIL
  6
CONTINUOUS
 62
     5
 10
430.1977992669998798
 20
-4.7830485979911819
 30
0.0
 11
430.1576017279995199
 21
-4.8318807009909497
 31
0.0
  0
LINE
  5
F6D7
  8
DETAIL
  6
CONTINUOUS
 62
     5
 10
430.1576017279995199
 20
-4.8318807009909497
 30
0.0
 11
430.1133162770001945
 21
-4.8776567709910523
 31
0.0
  0
LINE
  5
F6D8
  8
DETAIL
  6
CONTINUOUS
 62
     5
 10
430.1133162770001945
 20
-4.8776567709910523
 30
0.0
 11
430.0666727759999048
 21
-4.9213139919902451
 31
0.0
  0
LINE
  5
F6D9
  8
DETAIL
  6
CONTINUOUS
 62
     5
 10
430.0666727759999048
 20
-4.9213139919902451
 30
0.0
 11
429.9098361249997993
 21
-5.0552953529913793
 31
0.0
  0
LINE
  5
F6DA
  8
DETAIL
  6
CONTINUOUS
 62
     5
 10
429.9098361249997993
 20
-5.0552953529913793
 30
0.0
 11
429.7474973349998777
 21
-5.1805884639907163
 31
0.0
  0
LINE
  5
F6DB
  8
DETAIL
  6
CONTINUOUS
 62
     5
 10
429.7474973349998777
 20
-5.1805884639907163
 30
0.0
 11
429.5167977720001886
 21
-5.3447956979907749
 31
0.0
  0
LINE
  5
F6DC
  8
DETAIL
  6
CONTINUOUS
 62
     5
 10
429.5167977720001886
 20
-5.3447956979907749
 30
0.0
 11
429.2806105359994717
 21
-5.5019583659905029
 31
0.0
  0
LINE
  5
F6DD
  8
DETAIL
  6
CONTINUOUS
 62
     5
 10
429.2806105359994717
 20
-5.5019583659905029
 30
0.0
 11
428.97876400600029
 21
-5.6928270899907139
 31
0.0
  0
LINE
  5
F6DE
  8
DETAIL
  6
CONTINUOUS
 62
     5
 10
428.97876400600029
 20
-5.6928270899907139
 30
0.0
 11
428.6733000439999159
 21
-5.8774335369907931
 31
0.0
  0
LINE
  5
F6DF
  8
DETAIL
  6
CONTINUOUS
 62
     5
 10
428.6733000439999159
 20
-5.8774335369907931
 30
0.0
 11
428.2781743340000844
 21
-6.106329777991049
 31
0.0
  0
LINE
  5
F6E0
  8
DETAIL
  6
CONTINUOUS
 62
     5
 10
428.2781743340000844
 20
-6.106329777991049
 30
0.0
 11
427.8787630030000741
 21
-6.3279190659904989
 31
0.0
  0
LINE
  5
F6E1
  8
DETAIL
  6
CONTINUOUS
 62
     5
 10
427.8787630030000741
 20
-6.3279190659904989
 30
0.0
 11
427.4756085090002102
 21
-6.5428307869915443
 31
0.0
  0
LINE
  5
F6E2
  8
DETAIL
  6
CONTINUOUS
 62
     5
 10
427.4756085090002102
 20
-6.5428307869915443
 30
0.0
 11
427.0692533069995989
 21
-6.751694326991128
 31
0.0
  0
LINE
  5
F6E3
  8
DETAIL
  6
CONTINUOUS
 62
     5
 10
427.0692533069995989
 20
-6.751694326991128
 30
0.0
 11
426.557224299000211
 21
-7.0051525319913699
 31
0.0
  0
LINE
  5
F6E4
  8
DETAIL
  6
CONTINUOUS
 62
     5
 10
426.557224299000211
 20
-7.0051525319913699
 30
0.0
 11
426.0411775129995817
 21
-7.2501679949909876
 31
0.0
  0
LINE
  5
F6E5
  8
DETAIL
  6
CONTINUOUS
 62
     5
 10
426.0411775129995817
 20
-7.2501679949909876
 30
0.0
 11
425.5212528450001059
 21
-7.4867733119908726
 31
0.0
  0
LINE
  5
F6E6
  8
DETAIL
  6
CONTINUOUS
 62
     5
 10
425.5212528450001059
 20
-7.4867733119908726
 30
0.0
 11
424.9975901919996772
 21
-7.715001081990521
 31
0.0
  0
LINE
  5
F6E7
  8
DETAIL
  6
CONTINUOUS
 62
     5
 10
424.9975901919996772
 20
-7.715001081990521
 30
0.0
 11
424.3835436090002986
 21
-7.9700776299905547
 31
0.0
  0
LINE
  5
F6E8
  8
DETAIL
  6
CONTINUOUS
 62
     5
 10
424.3835436090002986
 20
-7.9700776299905547
 30
0.0
 11
423.7647675119997075
 21
-8.2135394889910458
 31
0.0
  0
LINE
  5
F6E9
  8
DETAIL
  6
CONTINUOUS
 62
     5
 10
423.7647675119997075
 20
-8.2135394889910458
 30
0.0
 11
423.1414069259998882
 21
-8.4450773609914904
 31
0.0
  0
LINE
  5
F6EA
  8
DETAIL
  6
CONTINUOUS
 62
     5
 10
423.1414069259998882
 20
-8.4450773609914904
 30
0.0
 11
422.5136068769996882
 21
-8.6643819469909431
 31
0.0
  0
LINE
  5
F6EB
  8
DETAIL
  6
CONTINUOUS
 62
     5
 10
422.5136068769996882
 20
-8.6643819469909431
 30
0.0
 11
421.9511890470002982
 21
-8.8490255059914489
 31
0.0
  0
LINE
  5
F6EC
  8
DETAIL
  6
CONTINUOUS
 62
     5
 10
421.9511890470002982
 20
-8.8490255059914489
 30
0.0
 11
421.3854942469997127
 21
-9.0234040049908781
 31
0.0
  0
LINE
  5
F6ED
  8
DETAIL
  6
CONTINUOUS
 62
     5
 10
421.3854942469997127
 20
-9.0234040049908781
 30
0.0
 11
420.8166478949996758
 21
-9.18718959699072
 31
0.0
  0
LINE
  5
F6EE
  8
DETAIL
  6
CONTINUOUS
 62
     5
 10
420.8166478949996758
 20
-9.18718959699072
 30
0.0
 11
420.2447754109998073
 21
-9.3400544349915435
 31
0.0
  0
LINE
  5
F6EF
  8
DETAIL
  6
CONTINUOUS
 62
     5
 10
420.2447754109998073
 20
-9.3400544349915435
 30
0.0
 11
419.6700022119994173
 21
-9.4816706719911963
 31
0.0
  0
LINE
  5
F6F0
  8
DETAIL
  6
CONTINUOUS
 62
     5
 10
419.6700022119994173
 20
-9.4816706719911963
 30
0.0
 11
419.1525169719997734
 21
-9.5987696189913532
 31
0.0
  0
LINE
  5
F6F1
  8
DETAIL
  6
CONTINUOUS
 62
     5
 10
419.1525169719997734
 20
-9.5987696189913532
 30
0.0
 11
418.6329512370003272
 21
-9.7063612099909733
 31
0.0
  0
LINE
  5
F6F2
  8
DETAIL
  6
CONTINUOUS
 62
     5
 10
418.6329512370003272
 20
-9.7063612099909733
 30
0.0
 11
418.1114537450001762
 21
-9.8042367669913801
 31
0.0
  0
LINE
  5
F6F3
  8
DETAIL
  6
CONTINUOUS
 62
     5
 10
418.1114537450001762
 20
-9.8042367669913801
 30
0.0
 11
417.5881732319994057
 21
-9.8921876089916623
 31
0.0
  0
LINE
  5
F6F4
  8
DETAIL
  6
CONTINUOUS
 62
     5
 10
417.5881732319994057
 20
-9.8921876089916623
 30
0.0
 11
417.063258434999625
 21
-9.9700050579913295
 31
0.0
  0
LINE
  5
F6F5
  8
DETAIL
  6
CONTINUOUS
 62
     5
 10
417.063258434999625
 20
-9.9700050579913295
 30
0.0
 11
416.5368580920002728
 21
-10.0374804319908399
 31
0.0
  0
LINE
  5
F6F6
  8
DETAIL
  6
CONTINUOUS
 62
     5
 10
416.5368580920002728
 20
-10.0374804319908399
 30
0.0
 11
415.9874500129998864
 21
-10.0965391469908301
 31
0.0
  0
LINE
  5
F6F7
  8
DETAIL
  6
CONTINUOUS
 62
     5
 10
415.9874500129998864
 20
-10.0965391469908301
 30
0.0
 11
415.4368894869994051
 21
-10.1440810989915899
 31
0.0
  0
LINE
  5
F6F8
  8
DETAIL
  6
CONTINUOUS
 62
     5
 10
415.4368894869994051
 20
-10.1440810989915899
 30
0.0
 11
414.8854728920005073
 21
-10.1800243709912994
 31
0.0
  0
LINE
  5
F6F9
  8
DETAIL
  6
CONTINUOUS
 62
     5
 10
414.8854728920005073
 20
-10.1800243709912994
 30
0.0
 11
414.3334966089996101
 21
-10.2042870459917996
 31
0.0
  0
LINE
  5
F6FA
  8
DETAIL
  6
CONTINUOUS
 62
     5
 10
414.3334966089996101
 20
-10.2042870459917996
 30
0.0
 11
413.7812570149998805
 21
-10.2167872079908193
 31
0.0
  0
LINE
  5
F6FB
  8
DETAIL
  6
CONTINUOUS
 62
     5
 10
413.7812570149998805
 20
-10.2167872079908193
 30
0.0
 11
413.2290504920002263
 21
-10.2174429409915302
 31
0.0
  0
LINE
  5
F6FC
  8
DETAIL
  6
CONTINUOUS
 62
     5
 10
275.266298624001081
 20
-59.6819851179943726
 30
0.0
 11
275.259539037000593
 21
-59.7022991439935069
 31
0.0
  0
LINE
  5
F6FD
  8
DETAIL
  6
CONTINUOUS
 62
     5
 10
275.259539037000593
 20
-59.7022991439935069
 30
0.0
 11
275.2542455530011125
 21
-59.7230444659944624
 31
0.0
  0
LINE
  5
F6FE
  8
DETAIL
  6
CONTINUOUS
 62
     5
 10
275.2542455530011125
 20
-59.7230444659944624
 30
0.0
 11
275.2504451240010894
 21
-59.7441154609941805
 31
0.0
  0
LINE
  5
F6FF
  8
DETAIL
  6
CONTINUOUS
 62
     5
 10
275.2504451240010894
 20
-59.7441154609941805
 30
0.0
 11
275.2481570990012187
 21
-59.7654048489939669
 31
0.0
  0
LINE
  5
F700
  8
DETAIL
  6
CONTINUOUS
 62
     5
 10
275.2481570990012187
 20
-59.7654048489939669
 30
0.0
 11
275.2473931270005778
 21
-59.7868042369937029
 31
0.0
  0
LINE
  5
F701
  8
DETAIL
  6
CONTINUOUS
 62
     5
 10
287.7526068740016854
 20
-76.479494140994575
 30
0.0
 11
287.7281311520010263
 21
-76.5616486359940609
 31
0.0
  0
LINE
  5
F702
  8
DETAIL
  6
CONTINUOUS
 62
     5
 10
287.7281311520010263
 20
-76.5616486359940609
 30
0.0
 11
287.6804409690012108
 21
-76.6341625409941116
 31
0.0
  0
LINE
  5
F703
  8
DETAIL
  6
CONTINUOUS
 62
     5
 10
287.6804409690012108
 20
-76.6341625409941116
 30
0.0
 11
287.6135924410008897
 21
-76.6908684499940136
 31
0.0
  0
LINE
  5
F704
  8
DETAIL
  6
CONTINUOUS
 62
     5
 10
287.6135924410008897
 20
-76.6908684499940136
 30
0.0
 11
287.533271124001601
 21
-76.7269434479940173
 31
0.0
  0
LINE
  5
F705
  8
DETAIL
  6
CONTINUOUS
 62
     5
 10
287.533271124001601
 20
-76.7269434479940173
 30
0.0
 11
287.4463084550015992
 21
-76.7393193089937995
 31
0.0
  0
LINE
  5
F706
  8
DETAIL
  6
CONTINUOUS
 62
     5
 10
275.012767254001119
 20
-58.9857765969936665
 30
0.0
 11
275.0129866410006798
 21
-58.9704247769941503
 31
0.0
  0
LINE
  5
F707
  8
DETAIL
  6
CONTINUOUS
 62
     5
 10
275.0129866410006798
 20
-58.9704247769941503
 30
0.0
 11
275.0137044860011883
 21
-58.9550359429940727
 31
0.0
  0
LINE
  5
F708
  8
DETAIL
  6
CONTINUOUS
 62
     5
 10
275.0137044860011883
 20
-58.9550359429940727
 30
0.0
 11
275.0149162350007828
 21
-58.939627493993612
 31
0.0
  0
LINE
  5
F709
  8
DETAIL
  6
CONTINUOUS
 62
     5
 10
275.0149162350007828
 20
-58.939627493993612
 30
0.0
 11
275.0166173320013172
 21
-58.9242168289947585
 31
0.0
  0
LINE
  5
F70A
  8
DETAIL
  6
CONTINUOUS
 62
     5
 10
275.0166173320013172
 20
-58.9242168289947585
 30
0.0
 11
275.0188032200011889
 21
-58.9088213469940385
 31
0.0
  0
LINE
  5
F70B
  8
DETAIL
  6
CONTINUOUS
 62
     5
 10
275.0188032200011889
 20
-58.9088213469940385
 30
0.0
 11
275.0214693440001952
 21
-58.8934584499938865
 31
0.0
  0
LINE
  5
F70C
  8
DETAIL
  6
CONTINUOUS
 62
     5
 10
275.0214693440001952
 20
-58.8934584499938865
 30
0.0
 11
275.0246111480009858
 21
-58.8781455339940294
 31
0.0
  0
LINE
  5
F70D
  8
DETAIL
  6
CONTINUOUS
 62
     5
 10
275.0246111480009858
 20
-58.8781455339940294
 30
0.0
 11
275.0282240750012193
 21
-58.862900001993701
 31
0.0
  0
LINE
  5
F70E
  8
DETAIL
  6
CONTINUOUS
 62
     5
 10
275.0282240750012193
 20
-58.862900001993701
 30
0.0
 11
275.0323035700012042
 21
-58.8477392499935377
 31
0.0
  0
LINE
  5
F70F
  8
DETAIL
  6
CONTINUOUS
 62
     5
 10
275.0323035700012042
 20
-58.8477392499935377
 30
0.0
 11
275.0368450770010895
 21
-58.8326806799941622
 31
0.0
  0
LINE
  5
F710
  8
DETAIL
  6
CONTINUOUS
 62
     5
 10
275.0368450770010895
 20
-58.8326806799941622
 30
0.0
 11
275.0418440390002957
 21
-58.8177416899943566
 31
0.0
  0
LINE
  5
F711
  8
DETAIL
  6
CONTINUOUS
 62
     5
 10
275.0418440390002957
 20
-58.8177416899943566
 30
0.0
 11
275.0472959020008261
 21
-58.8029396799938695
 31
0.0
  0
LINE
  5
F712
  8
DETAIL
  6
CONTINUOUS
 62
     5
 10
275.0472959020008261
 20
-58.8029396799938695
 30
0.0
 11
275.0531961090010213
 21
-58.7882920499941903
 31
0.0
  0
LINE
  5
F713
  8
DETAIL
  6
CONTINUOUS
 62
     5
 10
275.0531961090010213
 20
-58.7882920499941903
 30
0.0
 11
275.0595401030004723
 21
-58.773816197994158
 31
0.0
  0
LINE
  5
F714
  8
DETAIL
  6
CONTINUOUS
 62
     5
 10
275.0595401030004723
 20
-58.773816197994158
 30
0.0
 11
275.0663233300011257
 21
-58.7595295249939227
 31
0.0
  0
LINE
  5
F715
  8
DETAIL
  6
CONTINUOUS
 62
     5
 10
275.0663233300011257
 20
-58.7595295249939227
 30
0.0
 11
275.0735412330013787
 21
-58.7454494289941067
 31
0.0
  0
LINE
  5
F716
  8
DETAIL
  6
CONTINUOUS
 62
     5
 10
275.0735412330013787
 20
-58.7454494289941067
 30
0.0
 11
275.0811892560005276
 21
-58.7315933109939579
 31
0.0
  0
LINE
  5
F717
  8
DETAIL
  6
CONTINUOUS
 62
     5
 10
275.0811892560005276
 20
-58.7315933109939579
 30
0.0
 11
275.0892628430011086
 21
-58.7179785689941127
 31
0.0
  0
LINE
  5
F718
  8
DETAIL
  6
CONTINUOUS
 62
     5
 10
275.0892628430011086
 20
-58.7179785689941127
 30
0.0
 11
275.0977574390008158
 21
-58.7046226029942773
 31
0.0
  0
LINE
  5
F719
  8
DETAIL
  6
CONTINUOUS
 62
     5
 10
275.0977574390008158
 20
-58.7046226029942773
 30
0.0
 11
275.1066684870011159
 21
-58.6915428119937133
 31
0.0
  0
LINE
  5
F71A
  8
DETAIL
  6
CONTINUOUS
 62
     5
 10
275.1066684870011159
 20
-58.6915428119937133
 30
0.0
 11
275.1159914310010208
 21
-58.6787565969943898
 31
0.0
  0
LINE
  5
F71B
  8
DETAIL
  6
CONTINUOUS
 62
     5
 10
275.1159914310010208
 20
-58.6787565969943898
 30
0.0
 11
275.1257217160008963
 21
-58.6662813549937709
 31
0.0
  0
LINE
  5
F71C
  8
DETAIL
  6
CONTINUOUS
 62
     5
 10
275.1257217160008963
 20
-58.6662813549937709
 30
0.0
 11
275.1358547850005039
 21
-58.6541344879942699
 31
0.0
  0
LINE
  5
F71D
  8
DETAIL
  6
CONTINUOUS
 62
     5
 10
275.1358547850005039
 20
-58.6541344879942699
 30
0.0
 11
275.1463860830007775
 21
-58.6423333929942601
 31
0.0
  0
LINE
  5
F71E
  8
DETAIL
  6
CONTINUOUS
 62
     5
 10
275.1463860830007775
 20
-58.6423333929942601
 30
0.0
 11
275.1573110530006829
 21
-58.6308954709938916
 31
0.0
  0
LINE
  5
F71F
  8
DETAIL
  6
CONTINUOUS
 62
     5
 10
275.1573110530006829
 20
-58.6308954709938916
 30
0.0
 11
275.1686321180005166
 21
-58.619827501994223
 31
0.0
  0
LINE
  5
F720
  8
DETAIL
  6
CONTINUOUS
 62
     5
 10
275.1686321180005166
 20
-58.619827501994223
 30
0.0
 11
275.1803252140006748
 21
-58.6091463479942831
 31
0.0
  0
LINE
  5
F721
  8
DETAIL
  6
CONTINUOUS
 62
     5
 10
275.1803252140006748
 20
-58.6091463479942831
 30
0.0
 11
275.192372637000517
 21
-58.5988576469944675
 31
0.0
  0
LINE
  5
F722
  8
DETAIL
  6
CONTINUOUS
 62
     5
 10
275.192372637000517
 20
-58.5988576469944675
 30
0.0
 11
275.2047566820011184
 21
-58.5889670349943117
 31
0.0
  0
LINE
  5
F723
  8
DETAIL
  6
CONTINUOUS
 62
     5
 10
275.2047566820011184
 20
-58.5889670349943117
 30
0.0
 11
275.2174596430012912
 21
-58.5794801509937315
 31
0.0
  0
LINE
  5
F724
  8
DETAIL
  6
CONTINUOUS
 62
     5
 10
275.2174596430012912
 20
-58.5794801509937315
 30
0.0
 11
275.2304638150008032
 21
-58.5704026299945326
 31
0.0
  0
LINE
  5
F725
  8
DETAIL
  6
CONTINUOUS
 62
     5
 10
275.2304638150008032
 20
-58.5704026299945326
 30
0.0
 11
275.2437514930006728
 21
-58.5617401089939378
 31
0.0
  0
LINE
  5
F726
  8
DETAIL
  6
CONTINUOUS
 62
     5
 10
275.2437514930006728
 20
-58.5617401089939378
 30
0.0
 11
275.2573049730008279
 21
-58.5534982269937174
 31
0.0
  0
LINE
  5
F727
  8
DETAIL
  6
CONTINUOUS
 62
     5
 10
275.2573049730008279
 20
-58.5534982269937174
 30
0.0
 11
275.2711065490012174
 21
-58.5456826189938511
 31
0.0
  0
LINE
  5
F728
  8
DETAIL
  6
CONTINUOUS
 62
     5
 10
275.2711065490012174
 20
-58.5456826189938511
 30
0.0
 11
275.2851385150007104
 21
-58.5382989229938175
 31
0.0
  0
LINE
  5
F729
  8
DETAIL
  6
CONTINUOUS
 62
     5
 10
275.2851385150007104
 20
-58.5382989229938175
 30
0.0
 11
275.2993831680014978
 21
-58.5313527759935823
 31
0.0
  0
LINE
  5
F72A
  8
DETAIL
  6
CONTINUOUS
 62
     5
 10
275.2993831680014978
 20
-58.5313527759935823
 30
0.0
 11
275.3138228010012085
 21
-58.5248498139944786
 31
0.0
  0
LINE
  5
F72B
  8
DETAIL
  6
CONTINUOUS
 62
     5
 10
275.3138228010012085
 20
-58.5248498139944786
 30
0.0
 11
275.3284397100006231
 21
-58.5187956759946175
 31
0.0
  0
LINE
  5
F72C
  8
DETAIL
  6
CONTINUOUS
 62
     5
 10
275.3284397100006231
 20
-58.5187956759946175
 30
0.0
 11
275.3432161890004863
 21
-58.5131959969939999
 31
0.0
  0
LINE
  5
F72D
  8
DETAIL
  6
CONTINUOUS
 62
     5
 10
275.3432161890004863
 20
-58.5131959969939999
 30
0.0
 11
275.358134533001305
 21
-58.5080564149939093
 31
0.0
  0
LINE
  5
F72E
  8
DETAIL
  6
CONTINUOUS
 62
     5
 10
275.358134533001305
 20
-58.5080564149939093
 30
0.0
 11
275.3731770380009038
 21
-58.5033825659938884
 31
0.0
  0
LINE
  5
F72F
  8
DETAIL
  6
CONTINUOUS
 62
     5
 10
275.3731770380009038
 20
-58.5033825659938884
 30
0.0
 11
275.3883259980012213
 21
-58.4991800889938531
 31
0.0
  0
LINE
  5
F730
  8
DETAIL
  6
CONTINUOUS
 62
     5
 10
275.3883259980012213
 20
-58.4991800889938531
 30
0.0
 11
275.4035637090009914
 21
-58.4954546199942271
 31
0.0
  0
LINE
  5
F731
  8
DETAIL
  6
CONTINUOUS
 62
     5
 10
275.4035637090009914
 20
-58.4954546199942271
 30
0.0
 11
275.418872464000799
 21
-58.4922117949936293
 31
0.0
  0
LINE
  5
F732
  8
DETAIL
  6
CONTINUOUS
 62
     5
 10
275.418872464000799
 20
-58.4922117949936293
 30
0.0
 11
275.4342345590011973
 21
-58.4894572519942813
 31
0.0
  0
LINE
  5
F733
  8
DETAIL
  6
CONTINUOUS
 62
     5
 10
275.4342345590011973
 20
-58.4894572519942813
 30
0.0
 11
275.4496322880012826
 21
-58.4871966279943081
 31
0.0
  0
LINE
  5
F734
  8
DETAIL
  6
CONTINUOUS
 62
     5
 10
275.4496322880012826
 20
-58.4871966279943081
 30
0.0
 11
275.4650479480005743
 21
-58.4854355599945919
 31
0.0
  0
LINE
  5
F735
  8
DETAIL
  6
CONTINUOUS
 62
     5
 10
275.4650479480005743
 20
-58.4854355599945919
 30
0.0
 11
275.4804638320010781
 21
-58.4841796849941602
 31
0.0
  0
LINE
  5
F736
  8
DETAIL
  6
CONTINUOUS
 62
     5
 10
275.4804638320010781
 20
-58.4841796849941602
 30
0.0
 11
275.4958622350005157
 21
-58.4834346399939022
 31
0.0
  0
LINE
  5
F737
  8
DETAIL
  6
CONTINUOUS
 62
     5
 10
275.4958622350005157
 20
-58.4834346399939022
 30
0.0
 11
275.5112254530004066
 21
-58.4832060619937693
 31
0.0
  0
LINE
  5
F738
  8
DETAIL
  6
CONTINUOUS
 62
     5
 10
287.7526068740007759
 20
-59.7868042369937029
 30
0.0
 11
287.7518429020009876
 21
-59.7654048489939669
 31
0.0
  0
LINE
  5
F739
  8
DETAIL
  6
CONTINUOUS
 62
     5
 10
287.7518429020009876
 20
-59.7654048489939669
 30
0.0
 11
287.7495548770011737
 21
-59.7441154609941805
 31
0.0
  0
LINE
  5
F73A
  8
DETAIL
  6
CONTINUOUS
 62
     5
 10
287.7495548770011737
 20
-59.7441154609941805
 30
0.0
 11
287.745754448000298
 21
-59.7230444659944624
 31
0.0
  0
LINE
  5
F73B
  8
DETAIL
  6
CONTINUOUS
 62
     5
 10
287.745754448000298
 20
-59.7230444659944624
 30
0.0
 11
287.7404609640007038
 21
-59.7022991439935069
 31
0.0
  0
LINE
  5
F73C
  8
DETAIL
  6
CONTINUOUS
 62
     5
 10
287.7404609640007038
 20
-59.7022991439935069
 30
0.0
 11
287.7337013760006812
 21
-59.6819851179934702
 31
0.0
  0
LINE
  5
F73D
  8
DETAIL
  6
CONTINUOUS
 62
     5
 10
-41.4524948629987193
 20
-76.4794941410009415
 30
0.0
 11
-41.4280191409989129
 21
-76.5616486360004274
 31
0.0
  0
LINE
  5
F73E
  8
DETAIL
  6
CONTINUOUS
 62
     5
 10
-41.4280191409989129
 20
-76.5616486360004274
 30
0.0
 11
-41.3803289579982376
 21
-76.6341625410004781
 31
0.0
  0
LINE
  5
F73F
  8
DETAIL
  6
CONTINUOUS
 62
     5
 10
-41.3803289579982376
 20
-76.6341625410004781
 30
0.0
 11
-41.31348042999889
 21
-76.6908684500012896
 31
0.0
  0
LINE
  5
F740
  8
DETAIL
  6
CONTINUOUS
 62
     5
 10
-41.31348042999889
 20
-76.6908684500012896
 30
0.0
 11
-41.2331591129986919
 21
-76.7269434480003838
 31
0.0
  0
LINE
  5
F741
  8
DETAIL
  6
CONTINUOUS
 62
     5
 10
-41.2331591129986919
 20
-76.7269434480003838
 30
0.0
 11
-41.1461964439986332
 21
-76.7393193090010755
 31
0.0
  0
LINE
  5
F742
  8
DETAIL
  6
CONTINUOUS
 62
     5
 10
-345.6661866129988994
 20
-59.6819851180071126
 30
0.0
 11
-345.6916271579984823
 21
-59.6382249580064965
 31
0.0
  0
LINE
  5
F743
  8
DETAIL
  6
CONTINUOUS
 62
     5
 10
-345.6916271579984823
 20
-59.6382249580064965
 30
0.0
 11
-345.7245204689988896
 21
-59.5987120520066966
 31
0.0
  0
LINE
  5
F744
  8
DETAIL
  6
CONTINUOUS
 62
     5
 10
-345.7245204689988896
 20
-59.5987120520066966
 30
0.0
 11
-345.7638808669989885
 21
-59.5646304400070221
 31
0.0
  0
LINE
  5
F745
  8
DETAIL
  6
CONTINUOUS
 62
     5
 10
-345.7638808669989885
 20
-59.5646304400070221
 30
0.0
 11
-345.8085288809988924
 21
-59.5370014100071785
 31
0.0
  0
LINE
  5
F746
  8
DETAIL
  6
CONTINUOUS
 62
     5
 10
-345.8085288809988924
 20
-59.5370014100071785
 30
0.0
 11
-345.8571265899990976
 21
-59.5166528910067427
 31
0.0
  0
LINE
  5
F747
  8
DETAIL
  6
CONTINUOUS
 62
     5
 10
-345.8571265899990976
 20
-59.5166528910067427
 30
0.0
 11
-345.9082177189984009
 21
-59.5041946470064431
 31
0.0
  0
LINE
  5
F748
  8
DETAIL
  6
CONTINUOUS
 62
     5
 10
-345.9082177189984009
 20
-59.5041946470064431
 30
0.0
 11
-345.9602712739988988
 21
-59.5000000000063665
 31
0.0
  0
LINE
  5
F749
  8
DETAIL
  6
CONTINUOUS
 62
     5
 10
430.3830419010000128
 20
-4.607898985990686
 30
0.0
 11
430.3799099400001751
 21
-4.607475673990848
 31
0.0
  0
LINE
  5
F74A
  8
DETAIL
  6
CONTINUOUS
 62
     5
 10
430.3799099400001751
 20
-4.607475673990848
 30
0.0
 11
430.3767557940000188
 21
-4.6071928829906019
 31
0.0
  0
LINE
  5
F74B
  8
DETAIL
  6
CONTINUOUS
 62
     5
 10
430.3767557940000188
 20
-4.6071928829906019
 30
0.0
 11
430.373585297000318
 21
-4.6070458839913044
 31
0.0
  0
LINE
  5
F74C
  8
DETAIL
  6
CONTINUOUS
 62
     5
 10
430.373585297000318
 20
-4.6070458839913044
 30
0.0
 11
430.3704042819999245
 21
-4.607029947990668
 31
0.0
  0
LINE
  5
F74D
  8
DETAIL
  6
CONTINUOUS
 62
     5
 10
430.3704042819999245
 20
-4.607029947990668
 30
0.0
 11
430.3672185839996018
 21
-4.6071403459909561
 31
0.0
  0
LINE
  5
F74E
  8
DETAIL
  6
CONTINUOUS
 62
     5
 10
430.3672185839996018
 20
-4.6071403459909561
 30
0.0
 11
430.3640340369993282
 21
-4.6073723489907934
 31
0.0
  0
LINE
  5
F74F
  8
DETAIL
  6
CONTINUOUS
 62
     5
 10
430.3640340369993282
 20
-4.6073723489907934
 30
0.0
 11
430.3608564730001831
 21
-4.6077212279906226
 31
0.0
  0
LINE
  5
F750
  8
DETAIL
  6
CONTINUOUS
 62
     5
 10
430.3608564730001831
 20
-4.6077212279906226
 30
0.0
 11
430.3576917279996792
 21
-4.608182253990889
 31
0.0
  0
LINE
  5
F751
  8
DETAIL
  6
CONTINUOUS
 62
     5
 10
430.3576917279996792
 20
-4.608182253990889
 30
0.0
 11
430.3545456339998054
 21
-4.6087506989915701
 31
0.0
  0
LINE
  5
F752
  8
DETAIL
  6
CONTINUOUS
 62
     5
 10
430.3545456339998054
 20
-4.6087506989915701
 30
0.0
 11
430.3514240269996094
 21
-4.6094218319913116
 31
0.0
  0
LINE
  5
F753
  8
DETAIL
  6
CONTINUOUS
 62
     5
 10
430.3514240269996094
 20
-4.6094218319913116
 30
0.0
 11
430.3483327379998968
 21
-4.610190925990536
 31
0.0
  0
LINE
  5
F754
  8
DETAIL
  6
CONTINUOUS
 62
     5
 10
430.3483327379998968
 20
-4.610190925990536
 30
0.0
 11
430.3452776040002163
 21
-4.6110532509910618
 31
0.0
  0
LINE
  5
F755
  8
DETAIL
  6
CONTINUOUS
 62
     5
 10
430.3452776040002163
 20
-4.6110532509910618
 30
0.0
 11
430.3415500709998014
 21
-4.6122444519905912
 31
0.0
  0
LINE
  5
F756
  8
DETAIL
  6
CONTINUOUS
 62
     5
 10
430.3415500709998014
 20
-4.6122444519905912
 30
0.0
 11
430.3378859880003802
 21
-4.6135675759905999
 31
0.0
  0
LINE
  5
F757
  8
DETAIL
  6
CONTINUOUS
 62
     5
 10
430.3378859880003802
 20
-4.6135675759905999
 30
0.0
 11
430.334284382999499
 21
-4.6150187519906458
 31
0.0
  0
LINE
  5
F758
  8
DETAIL
  6
CONTINUOUS
 62
     5
 10
430.334284382999499
 20
-4.6150187519906458
 30
0.0
 11
430.3307442830000014
 21
-4.6165941079907489
 31
0.0
  0
LINE
  5
F759
  8
DETAIL
  6
CONTINUOUS
 62
     5
 10
430.3307442830000014
 20
-4.6165941079907489
 30
0.0
 11
430.3272647120002148
 21
-4.6182897729904653
 31
0.0
  0
LINE
  5
F75A
  8
DETAIL
  6
CONTINUOUS
 62
     5
 10
430.3272647120002148
 20
-4.6182897729904653
 30
0.0
 11
430.3238446999994267
 21
-4.6201018749907226
 31
0.0
  0
LINE
  5
F75B
  8
DETAIL
  6
CONTINUOUS
 62
     5
 10
430.3238446999994267
 20
-4.6201018749907226
 30
0.0
 11
430.3204832720002742
 21
-4.6220265419906346
 31
0.0
  0
LINE
  5
F75C
  8
DETAIL
  6
CONTINUOUS
 62
     5
 10
430.3204832720002742
 20
-4.6220265419906346
 30
0.0
 11
430.3171794549998026
 21
-4.6240599019911306
 31
0.0
  0
LINE
  5
F75D
  8
DETAIL
  6
CONTINUOUS
 62
     5
 10
430.3171794549998026
 20
-4.6240599019911306
 30
0.0
 11
430.3139322750002975
 21
-4.6261980849903921
 31
0.0
  0
LINE
  5
F75E
  8
DETAIL
  6
CONTINUOUS
 62
     5
 10
430.3139322750002975
 20
-4.6261980849903921
 30
0.0
 11
430.3107407599999874
 21
-4.6284372179907223
 31
0.0
  0
LINE
  5
F75F
  8
DETAIL
  6
CONTINUOUS
 62
     5
 10
430.3107407599999874
 20
-4.6284372179907223
 30
0.0
 11
430.3076039360003051
 21
-4.6307734289912332
 31
0.0
  0
LINE
  5
F760
  8
DETAIL
  6
CONTINUOUS
 62
     5
 10
430.3076039360003051
 20
-4.6307734289912332
 30
0.0
 11
430.3045208300000013
 21
-4.6332028469914803
 31
0.0
  0
LINE
  5
F761
  8
DETAIL
  6
CONTINUOUS
 62
     5
 10
430.3045208300000013
 20
-4.6332028469914803
 30
0.0
 11
430.3014904689998161
 21
-4.635721600991018
 31
0.0
  0
LINE
  5
F762
  8
DETAIL
  6
CONTINUOUS
 62
     5
 10
430.3014904689998161
 20
-4.635721600991018
 30
0.0
 11
430.2985118790002161
 21
-4.6383258189907792
 31
0.0
  0
LINE
  5
F763
  8
DETAIL
  6
CONTINUOUS
 62
     5
 10
430.2985118790002161
 20
-4.6383258189907792
 30
0.0
 11
430.2955840869998951
 21
-4.6410116279912472
 31
0.0
  0
LINE
  5
F764
  8
DETAIL
  6
CONTINUOUS
 62
     5
 10
430.2955840869998951
 20
-4.6410116279912472
 30
0.0
 11
430.2927061199998207
 21
-4.6437751579906026
 31
0.0
  0
LINE
  5
F765
  8
DETAIL
  6
CONTINUOUS
 62
     5
 10
430.2927061199998207
 20
-4.6437751579906026
 30
0.0
 11
430.2898770040001182
 21
-4.6466125369906868
 31
0.0
  0
LINE
  5
F766
  8
DETAIL
  6
CONTINUOUS
 62
     5
 10
430.2898770040001182
 20
-4.6466125369906868
 30
0.0
 11
430.2870957670002099
 21
-4.6495198919910763
 31
0.0
  0
LINE
  5
F767
  8
DETAIL
  6
CONTINUOUS
 62
     5
 10
430.2870957670002099
 20
-4.6495198919910763
 30
0.0
 11
430.2843614339998908
 21
-4.6524933539913027
 31
0.0
  0
LINE
  5
F768
  8
DETAIL
  6
CONTINUOUS
 62
     5
 10
430.2843614339998908
 20
-4.6524933539913027
 30
0.0
 11
430.2816730339999935
 21
-4.6555290489914114
 31
0.0
  0
LINE
  5
F769
  8
DETAIL
  6
CONTINUOUS
 62
     5
 10
430.2816730339999935
 20
-4.6555290489914114
 30
0.0
 11
430.2790295909999259
 21
-4.6586231059909551
 31
0.0
  0
LINE
  5
F76A
  8
DETAIL
  6
CONTINUOUS
 62
     5
 10
430.2790295909999259
 20
-4.6586231059909551
 30
0.0
 11
430.276430134000293
 21
-4.6617716529908639
 31
0.0
  0
LINE
  5
F76B
  8
DETAIL
  6
CONTINUOUS
 62
     5
 10
430.276430134000293
 20
-4.6617716529908639
 30
0.0
 11
430.2738736889995721
 21
-4.6649708199911402
 31
0.0
  0
LINE
  5
F76C
  8
DETAIL
  6
CONTINUOUS
 62
     5
 10
430.2738736889995721
 20
-4.6649708199911402
 30
0.0
 11
430.2713592819999917
 21
-4.6682167339913567
 31
0.0
  0
LINE
  5
F76D
  8
DETAIL
  6
CONTINUOUS
 62
     5
 10
430.2713592819999917
 20
-4.6682167339913567
 30
0.0
 11
430.268885940999894
 21
-4.6715055229906284
 31
0.0
  0
LINE
  5
F76E
  8
DETAIL
  6
CONTINUOUS
 62
     5
 10
430.268885940999894
 20
-4.6715055229906284
 30
0.0
 11
430.2664526919998025
 21
-4.6748333159912363
 31
0.0
  0
LINE
  5
F76F
  8
DETAIL
  6
CONTINUOUS
 62
     5
 10
430.2664526919998025
 20
-4.6748333159912363
 30
0.0
 11
430.264058560999672
 21
-4.6781962419909169
 31
0.0
  0
LINE
  5
F770
  8
DETAIL
  6
CONTINUOUS
 62
     5
 10
430.264058560999672
 20
-4.6781962419909169
 30
0.0
 11
430.2617025760000047
 21
-4.6815904279910683
 31
0.0
  0
LINE
  5
F771
  8
DETAIL
  6
CONTINUOUS
 62
     5
 10
430.2617025760000047
 20
-4.6815904279910683
 30
0.0
 11
430.2593837639997219
 21
-4.6850120029912432
 31
0.0
  0
LINE
  5
F772
  8
DETAIL
  6
CONTINUOUS
 62
     5
 10
430.2593837639997219
 20
-4.6850120029912432
 30
0.0
 11
430.2571011500003237
 21
-4.6884570949914632
 31
0.0
  0
LINE
  5
F773
  8
DETAIL
  6
CONTINUOUS
 62
     5
 10
430.2571011500003237
 20
-4.6884570949914632
 30
0.0
 11
430.2548537619995841
 21
-4.6919218339908184
 31
0.0
  0
LINE
  5
F774
  8
DETAIL
  6
CONTINUOUS
 62
     5
 10
430.2548537619995841
 20
-4.6919218339908184
 30
0.0
 11
430.2526406259993905
 21
-4.6954023459911687
 31
0.0
  0
LINE
  5
F775
  8
DETAIL
  6
CONTINUOUS
 62
     5
 10
430.2526406259993905
 20
-4.6954023459911687
 30
0.0
 11
430.2504607700001884
 21
-4.6988947599911617
 31
0.0
  0
LINE
  5
F776
  8
DETAIL
  6
CONTINUOUS
 62
     5
 10
430.2504607700001884
 20
-4.6988947599911617
 30
0.0
 11
430.2483132189998969
 21
-4.7023952059907961
 31
0.0
  0
LINE
  5
F777
  8
DETAIL
  6
CONTINUOUS
 62
     5
 10
430.2483132189998969
 20
-4.7023952059907961
 30
0.0
 11
430.2461970009999277
 21
-4.7058998099910241
 31
0.0
  0
LINE
  5
F778
  8
DETAIL
  6
CONTINUOUS
 62
     5
 10
430.2461970009999277
 20
-4.7058998099910241
 30
0.0
 11
430.2441111420001789
 21
-4.7094047019909331
 31
0.0
  0
LINE
  5
F779
  8
DETAIL
  6
CONTINUOUS
 62
     5
 10
430.2441111420001789
 20
-4.7094047019909331
 30
0.0
 11
430.2420546690000265
 21
-4.7129060089910118
 31
0.0
  0
LINE
  5
F77A
  8
DETAIL
  6
CONTINUOUS
 62
     5
 10
430.2420546690000265
 20
-4.7129060089910118
 30
0.0
 11
430.2400266089998127
 21
-4.7163998609903501
 31
0.0
  0
LINE
  5
F77B
  8
DETAIL
  6
CONTINUOUS
 62
     5
 10
-431.4367107520001241
 20
-3.398828292009056
 30
0.0
 11
-432.6366251409999109
 21
-3.2554391950088748
 31
0.0
  0
LINE
  5
F77C
  8
DETAIL
  6
CONTINUOUS
 62
     5
 10
-432.6366251409999109
 20
-3.2554391950088748
 30
0.0
 11
-433.2369704849996879
 21
-3.1866147450091371
 31
0.0
  0
LINE
  5
F77D
  8
DETAIL
  6
CONTINUOUS
 62
     5
 10
-433.2369704849996879
 20
-3.1866147450091371
 30
0.0
 11
-433.8380975950003062
 21
-3.1225766180086789
 31
0.0
  0
LINE
  5
F77E
  8
DETAIL
  6
CONTINUOUS
 62
     5
 10
-433.8380975950003062
 20
-3.1225766180086789
 30
0.0
 11
-434.1248243809995984
 21
-3.094463874008397
 31
0.0
  0
LINE
  5
F77F
  8
DETAIL
  6
CONTINUOUS
 62
     5
 10
-434.1248243809995984
 20
-3.094463874008397
 30
0.0
 11
-434.4117931190003219
 21
-3.068660734008517
 31
0.0
  0
LINE
  5
F780
  8
DETAIL
  6
CONTINUOUS
 62
     5
 10
-434.4117931190003219
 20
-3.068660734008517
 30
0.0
 11
-434.6989793620005003
 21
-3.0459017960083652
 31
0.0
  0
LINE
  5
F781
  8
DETAIL
  6
CONTINUOUS
 62
     5
 10
-434.6989793620005003
 20
-3.0459017960083652
 30
0.0
 11
-434.986358662999919
 21
-3.0269216560081982
 31
0.0
  0
LINE
  5
F782
  8
DETAIL
  6
CONTINUOUS
 62
     5
 10
-434.986358662999919
 20
-3.0269216560081982
 30
0.0
 11
-435.2739065750001259
 21
-3.0124549120082511
 31
0.0
  0
LINE
  5
F783
  8
DETAIL
  6
CONTINUOUS
 62
     5
 10
-435.2739065750001259
 20
-3.0124549120082511
 30
0.0
 11
-435.5615986510001107
 21
-3.0032361610083171
 31
0.0
  0
LINE
  5
F784
  8
DETAIL
  6
CONTINUOUS
 62
     5
 10
-435.5615986510001107
 20
-3.0032361610083171
 30
0.0
 11
-435.8494104440005117
 21
-3.0000000000090941
 31
0.0
  0
LINE
  5
F785
  8
DETAIL
  6
CONTINUOUS
 62
     5
 10
-425.2973874469998918
 20
-3.916781583008742
 30
0.0
 11
-425.8332941809994168
 21
-3.8973916240083781
 31
0.0
  0
LINE
  5
F786
  8
DETAIL
  6
CONTINUOUS
 62
     5
 10
-425.8332941809994168
 20
-3.8973916240083781
 30
0.0
 11
-426.3951746470000899
 21
-3.8701359410079021
 31
0.0
  0
LINE
  5
F787
  8
DETAIL
  6
CONTINUOUS
 62
     5
 10
-426.3951746470000899
 20
-3.8701359410079021
 30
0.0
 11
-426.9567132950006112
 21
-3.836355395008467
 31
0.0
  0
LINE
  5
F788
  8
DETAIL
  6
CONTINUOUS
 62
     5
 10
-426.9567132950006112
 20
-3.836355395008467
 30
0.0
 11
-427.5179100730001096
 21
-3.796613423008238
 31
0.0
  0
LINE
  5
F789
  8
DETAIL
  6
CONTINUOUS
 62
     5
 10
-427.5179100730001096
 20
-3.796613423008238
 30
0.0
 11
-428.0787649279999982
 21
-3.7514734600081279
 31
0.0
  0
LINE
  5
F78A
  8
DETAIL
  6
CONTINUOUS
 62
     5
 10
-428.0787649279999982
 20
-3.7514734600081279
 30
0.0
 11
-428.6392778090003048
 21
-3.7014989420085831
 31
0.0
  0
LINE
  5
F78B
  8
DETAIL
  6
CONTINUOUS
 62
     5
 10
-428.6392778090003048
 20
-3.7014989420085831
 30
0.0
 11
-429.199448661999611
 21
-3.6472533050091438
 31
0.0
  0
LINE
  5
F78C
  8
DETAIL
  6
CONTINUOUS
 62
     5
 10
-429.199448661999611
 20
-3.6472533050091438
 30
0.0
 11
-429.7592774349996034
 21
-3.5892999860088821
 31
0.0
  0
LINE
  5
F78D
  8
DETAIL
  6
CONTINUOUS
 62
     5
 10
-429.7592774349996034
 20
-3.5892999860088821
 30
0.0
 11
-430.3187640759996953
 21
-3.5282024200087099
 31
0.0
  0
LINE
  5
F78E
  8
DETAIL
  6
CONTINUOUS
 62
     5
 10
-430.3187640759996953
 20
-3.5282024200087099
 30
0.0
 11
-430.8779085329996974
 21
-3.464524043009078
 31
0.0
  0
LINE
  5
F78F
  8
DETAIL
  6
CONTINUOUS
 62
     5
 10
-430.8779085329996974
 20
-3.464524043009078
 30
0.0
 11
-431.4367107520001241
 21
-3.398828292009056
 31
0.0
  0
LINE
  5
F790
  8
DETAIL
  6
CONTINUOUS
 62
     5
 10
287.4887745480008903
 20
-58.4832060619937693
 30
0.0
 11
287.5041377660008948
 21
-58.4834346399939022
 31
0.0
  0
LINE
  5
F791
  8
DETAIL
  6
CONTINUOUS
 62
     5
 10
287.5041377660008948
 20
-58.4834346399939022
 30
0.0
 11
287.5195361690002755
 21
-58.4841796849941602
 31
0.0
  0
LINE
  5
F792
  8
DETAIL
  6
CONTINUOUS
 62
     5
 10
287.5195361690002755
 20
-58.4841796849941602
 30
0.0
 11
287.5349520530007794
 21
-58.4854355609932099
 31
0.0
  0
LINE
  5
F793
  8
DETAIL
  6
CONTINUOUS
 62
     5
 10
287.5349520530007794
 20
-58.4854355609932099
 30
0.0
 11
287.5503677120004795
 21
-58.4871966289938428
 31
0.0
  0
LINE
  5
F794
  8
DETAIL
  6
CONTINUOUS
 62
     5
 10
287.5503677120004795
 20
-58.4871966289938428
 30
0.0
 11
287.565765442001009
 21
-58.4894572529938088
 31
0.0
  0
LINE
  5
F795
  8
DETAIL
  6
CONTINUOUS
 62
     5
 10
287.565765442001009
 20
-58.4894572529938088
 30
0.0
 11
287.5811275370006115
 21
-58.4922117959940806
 31
0.0
  0
LINE
  5
F796
  8
DETAIL
  6
CONTINUOUS
 62
     5
 10
287.5811275370006115
 20
-58.4922117959940806
 30
0.0
 11
287.5964362920012718
 21
-58.4954546199933318
 31
0.0
  0
LINE
  5
F797
  8
DETAIL
  6
CONTINUOUS
 62
     5
 10
287.5964362920012718
 20
-58.4954546199933318
 30
0.0
 11
287.6116740020007114
 21
-58.4991800899942973
 31
0.0
  0
LINE
  5
F798
  8
DETAIL
  6
CONTINUOUS
 62
     5
 10
287.6116740020007114
 20
-58.4991800899942973
 30
0.0
 11
287.6268229620009151
 21
-58.5033825669943326
 31
0.0
  0
LINE
  5
F799
  8
DETAIL
  6
CONTINUOUS
 62
     5
 10
287.6268229620009151
 20
-58.5033825669943326
 30
0.0
 11
287.6418654670014803
 21
-58.5080564159943606
 31
0.0
  0
LINE
  5
F79A
  8
DETAIL
  6
CONTINUOUS
 62
     5
 10
287.6418654670014803
 20
-58.5080564159943606
 30
0.0
 11
287.6567838120008105
 21
-58.5131959979935274
 31
0.0
  0
LINE
  5
F79B
  8
DETAIL
  6
CONTINUOUS
 62
     5
 10
287.6567838120008105
 20
-58.5131959979935274
 30
0.0
 11
287.6715602910007874
 21
-58.5187956759937222
 31
0.0
  0
LINE
  5
F79C
  8
DETAIL
  6
CONTINUOUS
 62
     5
 10
287.6715602910007874
 20
-58.5187956759937222
 30
0.0
 11
287.6861772000011115
 21
-58.5248498149940133
 31
0.0
  0
LINE
  5
F79D
  8
DETAIL
  6
CONTINUOUS
 62
     5
 10
287.6861772000011115
 20
-58.5248498149940133
 30
0.0
 11
287.7006168330008222
 21
-58.5313527769940265
 31
0.0
  0
LINE
  5
F79E
  8
DETAIL
  6
CONTINUOUS
 62
     5
 10
287.7006168330008222
 20
-58.5313527769940265
 30
0.0
 11
287.7148614850001991
 21
-58.5382989239942617
 31
0.0
  0
LINE
  5
F79F
  8
DETAIL
  6
CONTINUOUS
 62
     5
 10
287.7148614850001991
 20
-58.5382989239942617
 30
0.0
 11
287.7288934520011026
 21
-58.5456826199933928
 31
0.0
  0
LINE
  5
F7A0
  8
DETAIL
  6
CONTINUOUS
 62
     5
 10
287.7288934520011026
 20
-58.5456826199933928
 30
0.0
 11
287.7426950270009911
 21
-58.5534982269937174
 31
0.0
  0
LINE
  5
F7A1
  8
DETAIL
  6
CONTINUOUS
 62
     5
 10
287.7426950270009911
 20
-58.5534982269937174
 30
0.0
 11
287.7562485070010894
 21
-58.5617401099934796
 31
0.0
  0
LINE
  5
F7A2
  8
DETAIL
  6
CONTINUOUS
 62
     5
 10
287.7562485070010894
 20
-58.5617401099934796
 30
0.0
 11
287.7695361860006074
 21
-58.5704026299936231
 31
0.0
  0
LINE
  5
F7A3
  8
DETAIL
  6
CONTINUOUS
 62
     5
 10
287.7695361860006074
 20
-58.5704026299936231
 30
0.0
 11
287.7825403580009151
 21
-58.5794801509937315
 31
0.0
  0
LINE
  5
F7A4
  8
DETAIL
  6
CONTINUOUS
 62
     5
 10
287.7825403580009151
 20
-58.5794801509937315
 30
0.0
 11
287.7952433190002921
 21
-58.5889670359938393
 31
0.0
  0
LINE
  5
F7A5
  8
DETAIL
  6
CONTINUOUS
 62
     5
 10
287.7952433190002921
 20
-58.5889670359938393
 30
0.0
 11
287.807627363001302
 21
-58.598857646993558
 31
0.0
  0
LINE
  5
F7A6
  8
DETAIL
  6
CONTINUOUS
 62
     5
 10
287.807627363001302
 20
-58.598857646993558
 30
0.0
 11
287.8196747860010873
 21
-58.6091463479942831
 31
0.0
  0
LINE
  5
F7A7
  8
DETAIL
  6
CONTINUOUS
 62
     5
 10
287.8196747860010873
 20
-58.6091463479942831
 30
0.0
 11
287.8313678830008939
 21
-58.619827501994223
 31
0.0
  0
LINE
  5
F7A8
  8
DETAIL
  6
CONTINUOUS
 62
     5
 10
287.8313678830008939
 20
-58.619827501994223
 30
0.0
 11
287.8426889470010792
 21
-58.6308954709938916
 31
0.0
  0
LINE
  5
F7A9
  8
DETAIL
  6
CONTINUOUS
 62
     5
 10
287.8426889470010792
 20
-58.6308954709938916
 30
0.0
 11
287.8536139180005193
 21
-58.6423333929942601
 31
0.0
  0
LINE
  5
F7AA
  8
DETAIL
  6
CONTINUOUS
 62
     5
 10
287.8536139180005193
 20
-58.6423333929942601
 30
0.0
 11
287.8641452160009067
 21
-58.6541344869938186
 31
0.0
  0
LINE
  5
F7AB
  8
DETAIL
  6
CONTINUOUS
 62
     5
 10
287.8641452160009067
 20
-58.6541344869938186
 30
0.0
 11
287.8742782850004005
 21
-58.6662813549937709
 31
0.0
  0
LINE
  5
F7AC
  8
DETAIL
  6
CONTINUOUS
 62
     5
 10
287.8742782850004005
 20
-58.6662813549937709
 30
0.0
 11
287.8840085700011855
 21
-58.6787565959939528
 31
0.0
  0
LINE
  5
F7AD
  8
DETAIL
  6
CONTINUOUS
 62
     5
 10
287.8840085700011855
 20
-58.6787565959939528
 30
0.0
 11
287.893331515000682
 21
-58.6915428119937133
 31
0.0
  0
LINE
  5
F7AE
  8
DETAIL
  6
CONTINUOUS
 62
     5
 10
287.893331515000682
 20
-58.6915428119937133
 30
0.0
 11
287.902242563000982
 21
-58.7046226029942773
 31
0.0
  0
LINE
  5
F7AF
  8
DETAIL
  6
CONTINUOUS
 62
     5
 10
287.902242563000982
 20
-58.7046226029942773
 30
0.0
 11
287.9107371590006892
 21
-58.7179785689941127
 31
0.0
  0
LINE
  5
F7B0
  8
DETAIL
  6
CONTINUOUS
 62
     5
 10
287.9107371590006892
 20
-58.7179785689941127
 30
0.0
 11
287.9188107460004176
 21
-58.7315933109939579
 31
0.0
  0
LINE
  5
F7B1
  8
DETAIL
  6
CONTINUOUS
 62
     5
 10
287.9188107460004176
 20
-58.7315933109939579
 30
0.0
 11
287.9264587690004191
 21
-58.7454494289941067
 31
0.0
  0
LINE
  5
F7B2
  8
DETAIL
  6
CONTINUOUS
 62
     5
 10
287.9264587690004191
 20
-58.7454494289941067
 30
0.0
 11
287.9336766720006722
 21
-58.7595295249939227
 31
0.0
  0
LINE
  5
F7B3
  8
DETAIL
  6
CONTINUOUS
 62
     5
 10
287.9336766720006722
 20
-58.7595295249939227
 30
0.0
 11
287.9404598990013255
 21
-58.773816197994158
 31
0.0
  0
LINE
  5
F7B4
  8
DETAIL
  6
CONTINUOUS
 62
     5
 10
287.9404598990013255
 20
-58.773816197994158
 30
0.0
 11
287.9468038940004249
 21
-58.7882920499941903
 31
0.0
  0
LINE
  5
F7B5
  8
DETAIL
  6
CONTINUOUS
 62
     5
 10
287.9468038940004249
 20
-58.7882920499941903
 30
0.0
 11
287.9527041010005064
 21
-58.8029396799938695
 31
0.0
  0
LINE
  5
F7B6
  8
DETAIL
  6
CONTINUOUS
 62
     5
 10
287.9527041010005064
 20
-58.8029396799938695
 30
0.0
 11
287.958155963000479
 21
-58.8177416899943566
 31
0.0
  0
LINE
  5
F7B7
  8
DETAIL
  6
CONTINUOUS
 62
     5
 10
287.958155963000479
 20
-58.8177416899943566
 30
0.0
 11
287.9631549260001862
 21
-58.8326806799941622
 31
0.0
  0
LINE
  5
F7B8
  8
DETAIL
  6
CONTINUOUS
 62
     5
 10
287.9631549260001862
 20
-58.8326806799941622
 30
0.0
 11
287.967696433000981
 21
-58.8477392499935377
 31
0.0
  0
LINE
  5
F7B9
  8
DETAIL
  6
CONTINUOUS
 62
     5
 10
287.967696433000981
 20
-58.8477392499935377
 30
0.0
 11
287.9717759280010796
 21
-58.8629000009932497
 31
0.0
  0
LINE
  5
F7BA
  8
DETAIL
  6
CONTINUOUS
 62
     5
 10
287.9717759280010796
 20
-58.8629000009932497
 30
0.0
 11
287.9753888550002898
 21
-58.8781455339940294
 31
0.0
  0
LINE
  5
F7BB
  8
DETAIL
  6
CONTINUOUS
 62
     5
 10
287.9753888550002898
 20
-58.8781455339940294
 30
0.0
 11
287.9785306580005795
 21
-58.8934584489943518
 31
0.0
  0
LINE
  5
F7BC
  8
DETAIL
  6
CONTINUOUS
 62
     5
 10
287.9785306580005795
 20
-58.8934584489943518
 30
0.0
 11
287.9811967820004952
 21
-58.9088213469940385
 31
0.0
  0
LINE
  5
F7BD
  8
DETAIL
  6
CONTINUOUS
 62
     5
 10
287.9811967820004952
 20
-58.9088213469940385
 30
0.0
 11
287.9833826700004806
 21
-58.9242168279943073
 31
0.0
  0
LINE
  5
F7BE
  8
DETAIL
  6
CONTINUOUS
 62
     5
 10
287.9833826700004806
 20
-58.9242168279943073
 30
0.0
 11
287.9850837660006277
 21
-58.939627493993612
 31
0.0
  0
LINE
  5
F7BF
  8
DETAIL
  6
CONTINUOUS
 62
     5
 10
287.9850837660006277
 20
-58.939627493993612
 30
0.0
 11
287.9862955150010748
 21
-58.9550359429940727
 31
0.0
  0
LINE
  5
F7C0
  8
DETAIL
  6
CONTINUOUS
 62
     5
 10
287.9862955150010748
 20
-58.9550359429940727
 30
0.0
 11
287.987013361001118
 21
-58.9704247769941503
 31
0.0
  0
LINE
  5
F7C1
  8
DETAIL
  6
CONTINUOUS
 62
     5
 10
287.987013361001118
 20
-58.9704247769941503
 30
0.0
 11
287.9872327460007
 21
-58.9857765969936665
 31
0.0
  0
LINE
  5
F7C2
  8
DETAIL
  6
CONTINUOUS
 62
     5
 10
-29.21111344199835
 20
-58.4832060620001286
 30
0.0
 11
-29.1957502239993083
 21
-58.4834346400002687
 31
0.0
  0
LINE
  5
F7C3
  8
DETAIL
  6
CONTINUOUS
 62
     5
 10
-29.1957502239993083
 20
-58.4834346400002687
 30
0.0
 11
-29.1803518209990216
 21
-58.4841796849996172
 31
0.0
  0
LINE
  5
F7C4
  8
DETAIL
  6
CONTINUOUS
 62
     5
 10
-29.1803518209990216
 20
-58.4841796849996172
 30
0.0
 11
-29.1649359369985213
 21
-58.4854355610004788
 31
0.0
  0
LINE
  5
F7C5
  8
DETAIL
  6
CONTINUOUS
 62
     5
 10
-29.1649359369985213
 20
-58.4854355610004788
 30
0.0
 11
-29.14952027699929
 21
-58.4871966290002092
 31
0.0
  0
LINE
  5
F7C6
  8
DETAIL
  6
CONTINUOUS
 62
     5
 10
-29.14952027699929
 20
-58.4871966290002092
 30
0.0
 11
-29.1341225479982313
 21
-58.4894572530001824
 31
0.0
  0
LINE
  5
F7C7
  8
DETAIL
  6
CONTINUOUS
 62
     5
 10
-29.1341225479982313
 20
-58.4894572530001824
 30
0.0
 11
-29.1187604529986892
 21
-58.4922117960004471
 31
0.0
  0
LINE
  5
F7C8
  8
DETAIL
  6
CONTINUOUS
 62
     5
 10
-29.1187604529986892
 20
-58.4922117960004471
 30
0.0
 11
-29.1034516979989384
 21
-58.4954546200006007
 31
0.0
  0
LINE
  5
F7C9
  8
DETAIL
  6
CONTINUOUS
 62
     5
 10
-29.1034516979989384
 20
-58.4954546200006007
 30
0.0
 11
-29.088213987998639
 21
-58.4991800900006709
 31
0.0
  0
LINE
  5
F7CA
  8
DETAIL
  6
CONTINUOUS
 62
     5
 10
-29.088213987998639
 20
-58.4991800900006709
 30
0.0
 11
-29.0730650279992915
 21
-58.5033825669997896
 31
0.0
  0
LINE
  5
F7CB
  8
DETAIL
  6
CONTINUOUS
 62
     5
 10
-29.0730650279992915
 20
-58.5033825669997896
 30
0.0
 11
-29.0580225229987299
 21
-58.5080564159998175
 31
0.0
  0
LINE
  5
F7CC
  8
DETAIL
  6
CONTINUOUS
 62
     5
 10
-29.0580225229987299
 20
-58.5080564159998175
 30
0.0
 11
-29.0431041779984298
 21
-58.5131959980008105
 31
0.0
  0
LINE
  5
F7CD
  8
DETAIL
  6
CONTINUOUS
 62
     5
 10
-29.0431041779984298
 20
-58.5131959980008105
 30
0.0
 11
-29.0283276989985097
 21
-58.5187956760000816
 31
0.0
  0
LINE
  5
F7CE
  8
DETAIL
  6
CONTINUOUS
 62
     5
 10
-29.0283276989985097
 20
-58.5187956760000816
 30
0.0
 11
-29.0137107899990987
 21
-58.5248498150003797
 31
0.0
  0
LINE
  5
F7CF
  8
DETAIL
  6
CONTINUOUS
 62
     5
 10
-29.0137107899990987
 20
-58.5248498150003797
 30
0.0
 11
-28.9992711569984785
 21
-58.531352777000393
 31
0.0
  0
LINE
  5
F7D0
  8
DETAIL
  6
CONTINUOUS
 62
     5
 10
-28.9992711569984785
 20
-58.531352777000393
 30
0.0
 11
-28.9850265049990412
 21
-58.5382989240006282
 31
0.0
  0
LINE
  5
F7D1
  8
DETAIL
  6
CONTINUOUS
 62
     5
 10
-28.9850265049990412
 20
-58.5382989240006282
 30
0.0
 11
-28.9709945379991005
 21
-58.5456826200006617
 31
0.0
  0
LINE
  5
F7D2
  8
DETAIL
  6
CONTINUOUS
 62
     5
 10
-28.9709945379991005
 20
-58.5456826200006617
 30
0.0
 11
-28.9571929619987714
 21
-58.553498227000091
 31
0.0
  0
LINE
  5
F7D3
  8
DETAIL
  6
CONTINUOUS
 62
     5
 10
-28.9571929619987714
 20
-58.553498227000091
 30
0.0
 11
-28.9436394829990604
 21
-58.5617401100007484
 31
0.0
  0
LINE
  5
F7D4
  8
DETAIL
  6
CONTINUOUS
 62
     5
 10
-28.9436394829990604
 20
-58.5617401100007484
 30
0.0
 11
-28.9303518039987502
 21
-58.5704026300008991
 31
0.0
  0
LINE
  5
F7D5
  8
DETAIL
  6
CONTINUOUS
 62
     5
 10
-28.9303518039987502
 20
-58.5704026300008991
 30
0.0
 11
-28.9173476319983784
 21
-58.579480151000098
 31
0.0
  0
LINE
  5
F7D6
  8
DETAIL
  6
CONTINUOUS
 62
     5
 10
-28.9173476319983784
 20
-58.579480151000098
 30
0.0
 11
-28.9046446709990086
 21
-58.5889670360002128
 31
0.0
  0
LINE
  5
F7D7
  8
DETAIL
  6
CONTINUOUS
 62
     5
 10
-28.9046446709990086
 20
-58.5889670360002128
 30
0.0
 11
-28.8922606259984605
 21
-58.5988576470008411
 31
0.0
  0
LINE
  5
F7D8
  8
DETAIL
  6
CONTINUOUS
 62
     5
 10
-28.8922606259984605
 20
-58.5988576470008411
 30
0.0
 11
-28.8802132029986787
 21
-58.6091463480006496
 31
0.0
  0
LINE
  5
F7D9
  8
DETAIL
  6
CONTINUOUS
 62
     5
 10
-28.8802132029986787
 20
-58.6091463480006496
 30
0.0
 11
-28.8685201069993091
 21
-58.6198275020005894
 31
0.0
  0
LINE
  5
F7DA
  8
DETAIL
  6
CONTINUOUS
 62
     5
 10
-28.8685201069993091
 20
-58.6198275020005894
 30
0.0
 11
-28.8571990419986903
 21
-58.6308954710002581
 31
0.0
  0
LINE
  5
F7DB
  8
DETAIL
  6
CONTINUOUS
 62
     5
 10
-28.8571990419986903
 20
-58.6308954710002581
 30
0.0
 11
-28.8462740719987814
 21
-58.6423333929997099
 31
0.0
  0
LINE
  5
F7DC
  8
DETAIL
  6
CONTINUOUS
 62
     5
 10
-28.8462740719987814
 20
-58.6423333929997099
 30
0.0
 11
-28.8357427739993
 21
-58.6541344870001922
 31
0.0
  0
LINE
  5
F7DD
  8
DETAIL
  6
CONTINUOUS
 62
     5
 10
-28.8357427739993
 20
-58.6541344870001922
 30
0.0
 11
-28.8256097039993584
 21
-58.6662813550001374
 31
0.0
  0
LINE
  5
F7DE
  8
DETAIL
  6
CONTINUOUS
 62
     5
 10
-28.8256097039993584
 20
-58.6662813550001374
 30
0.0
 11
-28.8158794189985201
 21
-58.6787565960003121
 31
0.0
  0
LINE
  5
F7DF
  8
DETAIL
  6
CONTINUOUS
 62
     5
 10
-28.8158794189985201
 20
-58.6787565960003121
 30
0.0
 11
-28.8065564749986187
 21
-58.6915428120000797
 31
0.0
  0
LINE
  5
F7E0
  8
DETAIL
  6
CONTINUOUS
 62
     5
 10
-28.8065564749986187
 20
-58.6915428120000797
 30
0.0
 11
-28.7976454269983115
 21
-58.7046226029997271
 31
0.0
  0
LINE
  5
F7E1
  8
DETAIL
  6
CONTINUOUS
 62
     5
 10
-28.7976454269983115
 20
-58.7046226029997271
 30
0.0
 11
-28.7891508309994606
 21
-58.7179785690004792
 31
0.0
  0
LINE
  5
F7E2
  8
DETAIL
  6
CONTINUOUS
 62
     5
 10
-28.7891508309994606
 20
-58.7179785690004792
 30
0.0
 11
-28.7810772439988796
 21
-58.7315933110003172
 31
0.0
  0
LINE
  5
F7E3
  8
DETAIL
  6
CONTINUOUS
 62
     5
 10
-28.7810772439988796
 20
-58.7315933110003172
 30
0.0
 11
-28.7734292209988816
 21
-58.7454494290004803
 31
0.0
  0
LINE
  5
F7E4
  8
DETAIL
  6
CONTINUOUS
 62
     5
 10
-28.7734292209988816
 20
-58.7454494290004803
 30
0.0
 11
-28.7662113169981204
 21
-58.759529525000282
 31
0.0
  0
LINE
  5
F7E5
  8
DETAIL
  6
CONTINUOUS
 62
     5
 10
-28.7662113169981204
 20
-58.759529525000282
 30
0.0
 11
-28.7594280909988811
 21
-58.7738161980005316
 31
0.0
  0
LINE
  5
F7E6
  8
DETAIL
  6
CONTINUOUS
 62
     5
 10
-28.7594280909988811
 20
-58.7738161980005316
 30
0.0
 11
-28.7530840959989291
 21
-58.7882920499996473
 31
0.0
  0
LINE
  5
F7E7
  8
DETAIL
  6
CONTINUOUS
 62
     5
 10
-28.7530840959989291
 20
-58.7882920499996473
 30
0.0
 11
-28.747183888998741
 21
-58.8029396800002431
 31
0.0
  0
LINE
  5
F7E8
  8
DETAIL
  6
CONTINUOUS
 62
     5
 10
-28.747183888998741
 20
-58.8029396800002431
 30
0.0
 11
-28.7417320259983207
 21
-58.8177416899998207
 31
0.0
  0
LINE
  5
F7E9
  8
DETAIL
  6
CONTINUOUS
 62
     5
 10
-28.7417320259983207
 20
-58.8177416899998207
 30
0.0
 11
-28.7367330639990612
 21
-58.8326806800005215
 31
0.0
  0
LINE
  5
F7EA
  8
DETAIL
  6
CONTINUOUS
 62
     5
 10
-28.7367330639990612
 20
-58.8326806800005215
 30
0.0
 11
-28.7321915569991688
 21
-58.847739249999897
 31
0.0
  0
LINE
  5
F7EB
  8
DETAIL
  6
CONTINUOUS
 62
     5
 10
-28.7321915569991688
 20
-58.847739249999897
 30
0.0
 11
-28.7281120619991306
 21
-58.8629000010005328
 31
0.0
  0
LINE
  5
F7EC
  8
DETAIL
  6
CONTINUOUS
 62
     5
 10
-28.7281120619991306
 20
-58.8629000010005328
 30
0.0
 11
-28.7244991349989505
 21
-58.878145534000403
 31
0.0
  0
LINE
  5
F7ED
  8
DETAIL
  6
CONTINUOUS
 62
     5
 10
-28.7244991349989505
 20
-58.878145534000403
 30
0.0
 11
-28.7213573309991297
 21
-58.8934584489998088
 31
0.0
  0
LINE
  5
F7EE
  8
DETAIL
  6
CONTINUOUS
 62
     5
 10
-28.7213573309991297
 20
-58.8934584489998088
 30
0.0
 11
-28.7186912079987486
 21
-58.9088213470004121
 31
0.0
  0
LINE
  5
F7EF
  8
DETAIL
  6
CONTINUOUS
 62
     5
 10
-28.7186912079987486
 20
-58.9088213470004121
 30
0.0
 11
-28.7165053199987597
 21
-58.9242168279997713
 31
0.0
  0
LINE
  5
F7F0
  8
DETAIL
  6
CONTINUOUS
 62
     5
 10
-28.7165053199987597
 20
-58.9242168279997713
 30
0.0
 11
-28.7148042229991916
 21
-58.9396274939999785
 31
0.0
  0
LINE
  5
F7F1
  8
DETAIL
  6
CONTINUOUS
 62
     5
 10
-28.7148042229991916
 20
-58.9396274939999785
 30
0.0
 11
-28.7135924749991283
 21
-58.9550359430004391
 31
0.0
  0
LINE
  5
F7F2
  8
DETAIL
  6
CONTINUOUS
 62
     5
 10
-28.7135924749991283
 20
-58.9550359430004391
 30
0.0
 11
-28.7128746289990886
 21
-58.9704247770005097
 31
0.0
  0
LINE
  5
F7F3
  8
DETAIL
  6
CONTINUOUS
 62
     5
 10
-28.7128746289990886
 20
-58.9704247770005097
 30
0.0
 11
-28.7126552429990589
 21
-58.9857765970000401
 31
0.0
  0
LINE
  5
F7F4
  8
DETAIL
  6
CONTINUOUS
 62
     5
 10
-345.9111134419990776
 20
-58.4832060620065022
 30
0.0
 11
-345.8957502239990731
 21
-58.4834346400066281
 31
0.0
  0
LINE
  5
F7F5
  8
DETAIL
  6
CONTINUOUS
 62
     5
 10
-345.8957502239990731
 20
-58.4834346400066281
 30
0.0
 11
-345.8803518209987828
 21
-58.4841796850068931
 31
0.0
  0
LINE
  5
F7F6
  8
DETAIL
  6
CONTINUOUS
 62
     5
 10
-345.8803518209987828
 20
-58.4841796850068931
 30
0.0
 11
-345.864935936998279
 21
-58.4854355610068524
 31
0.0
  0
LINE
  5
F7F7
  8
DETAIL
  6
CONTINUOUS
 62
     5
 10
-345.864935936998279
 20
-58.4854355610068524
 30
0.0
 11
-345.849520276999101
 21
-58.4871966290065686
 31
0.0
  0
LINE
  5
F7F8
  8
DETAIL
  6
CONTINUOUS
 62
     5
 10
-345.849520276999101
 20
-58.4871966290065686
 30
0.0
 11
-345.8341225479990158
 21
-58.4894572530065489
 31
0.0
  0
LINE
  5
F7F9
  8
DETAIL
  6
CONTINUOUS
 62
     5
 10
-345.8341225479990158
 20
-58.4894572530065489
 30
0.0
 11
-345.8187604529985038
 21
-58.4922117960068135
 31
0.0
  0
LINE
  5
F7FA
  8
DETAIL
  6
CONTINUOUS
 62
     5
 10
-345.8187604529985038
 20
-58.4922117960068135
 30
0.0
 11
-345.8034516979988098
 21
-58.4954546200069672
 31
0.0
  0
LINE
  5
F7FB
  8
DETAIL
  6
CONTINUOUS
 62
     5
 10
-345.8034516979988098
 20
-58.4954546200069672
 30
0.0
 11
-345.7882139879985175
 21
-58.4991800900070302
 31
0.0
  0
LINE
  5
F7FC
  8
DETAIL
  6
CONTINUOUS
 62
     5
 10
-345.7882139879985175
 20
-58.4991800900070302
 30
0.0
 11
-345.7730650279991096
 21
-58.5033825670070584
 31
0.0
  0
LINE
  5
F7FD
  8
DETAIL
  6
CONTINUOUS
 62
     5
 10
-345.7730650279991096
 20
-58.5033825670070584
 30
0.0
 11
-345.7580225229984876
 21
-58.5080564160070935
 31
0.0
  0
LINE
  5
F7FE
  8
DETAIL
  6
CONTINUOUS
 62
     5
 10
-345.7580225229984876
 20
-58.5080564160070935
 30
0.0
 11
-345.7431041779992142
 21
-58.5131959980071699
 31
0.0
  0
LINE
  5
F7FF
  8
DETAIL
  6
CONTINUOUS
 62
     5
 10
-345.7431041779992142
 20
-58.5131959980071699
 30
0.0
 11
-345.7283276989992942
 21
-58.5187956760073575
 31
0.0
  0
LINE
  5
F800
  8
DETAIL
  6
CONTINUOUS
 62
     5
 10
-345.7283276989992942
 20
-58.5187956760073575
 30
0.0
 11
-345.7137107899989132
 21
-58.5248498150067391
 31
0.0
  0
LINE
  5
F801
  8
DETAIL
  6
CONTINUOUS
 62
     5
 10
-345.7137107899989132
 20
-58.5248498150067391
 30
0.0
 11
-345.6992711569992025
 21
-58.5313527770067594
 31
0.0
  0
LINE
  5
F802
  8
DETAIL
  6
CONTINUOUS
 62
     5
 10
-345.6992711569992025
 20
-58.5313527770067594
 30
0.0
 11
-345.6850265049989162
 21
-58.5382989240070017
 31
0.0
  0
LINE
  5
F803
  8
DETAIL
  6
CONTINUOUS
 62
     5
 10
-345.6850265049989162
 20
-58.5382989240070017
 30
0.0
 11
-345.6709945379989222
 21
-58.5456826200070282
 31
0.0
  0
LINE
  5
F804
  8
DETAIL
  6
CONTINUOUS
 62
     5
 10
-345.6709945379989222
 20
-58.5456826200070282
 30
0.0
 11
-345.6571929619985895
 21
-58.5534982270064503
 31
0.0
  0
LINE
  5
F805
  8
DETAIL
  6
CONTINUOUS
 62
     5
 10
-345.6571929619985895
 20
-58.5534982270064503
 30
0.0
 11
-345.6436394829988785
 21
-58.561740110007122
 31
0.0
  0
LINE
  5
F806
  8
DETAIL
  6
CONTINUOUS
 62
     5
 10
-345.6436394829988785
 20
-58.561740110007122
 30
0.0
 11
-345.6303518039986216
 21
-58.5704026300072584
 31
0.0
  0
LINE
  5
F807
  8
DETAIL
  6
CONTINUOUS
 62
     5
 10
-345.6303518039986216
 20
-58.5704026300072584
 30
0.0
 11
-345.6173476319991096
 21
-58.5794801510064573
 31
0.0
  0
LINE
  5
F808
  8
DETAIL
  6
CONTINUOUS
 62
     5
 10
-345.6173476319991096
 20
-58.5794801510064573
 30
0.0
 11
-345.6046446709988231
 21
-58.5889670360065793
 31
0.0
  0
LINE
  5
F809
  8
DETAIL
  6
CONTINUOUS
 62
     5
 10
-345.6046446709988231
 20
-58.5889670360065793
 30
0.0
 11
-345.5922606259991881
 21
-58.5988576470072005
 31
0.0
  0
LINE
  5
F80A
  8
DETAIL
  6
CONTINUOUS
 62
     5
 10
-345.5922606259991881
 20
-58.5988576470072005
 30
0.0
 11
-345.5802132029994027
 21
-58.609146348007009
 31
0.0
  0
LINE
  5
F80B
  8
DETAIL
  6
CONTINUOUS
 62
     5
 10
-345.5802132029994027
 20
-58.609146348007009
 30
0.0
 11
-345.568520106999074
 21
-58.6198275020069488
 31
0.0
  0
LINE
  5
F80C
  8
DETAIL
  6
CONTINUOUS
 62
     5
 10
-345.568520106999074
 20
-58.6198275020069488
 30
0.0
 11
-345.5571990419985013
 21
-58.6308954710066175
 31
0.0
  0
LINE
  5
F80D
  8
DETAIL
  6
CONTINUOUS
 62
     5
 10
-345.5571990419985013
 20
-58.6308954710066175
 30
0.0
 11
-345.5462740719985959
 21
-58.6423333930070001
 31
0.0
  0
LINE
  5
F80E
  8
DETAIL
  6
CONTINUOUS
 62
     5
 10
-345.5462740719985959
 20
-58.6423333930070001
 30
0.0
 11
-345.5357427739991181
 21
-58.6541344870065586
 31
0.0
  0
LINE
  5
F80F
  8
DETAIL
  6
CONTINUOUS
 62
     5
 10
-345.5357427739991181
 20
-58.6541344870065586
 30
0.0
 11
-345.5256097039991801
 21
-58.666281355006511
 31
0.0
  0
LINE
  5
F810
  8
DETAIL
  6
CONTINUOUS
 62
     5
 10
-345.5256097039991801
 20
-58.666281355006511
 30
0.0
 11
-345.5158794189991909
 21
-58.6787565960066786
 31
0.0
  0
LINE
  5
F811
  8
DETAIL
  6
CONTINUOUS
 62
     5
 10
-345.5158794189991909
 20
-58.6787565960066786
 30
0.0
 11
-345.5065564749993996
 21
-58.6915428120064391
 31
0.0
  0
LINE
  5
F812
  8
DETAIL
  6
CONTINUOUS
 62
     5
 10
-345.5065564749993996
 20
-58.6915428120064391
 30
0.0
 11
-345.4976454269989858
 21
-58.7046226030070102
 31
0.0
  0
LINE
  5
F813
  8
DETAIL
  6
CONTINUOUS
 62
     5
 10
-345.4976454269989858
 20
-58.7046226030070102
 30
0.0
 11
-345.489150830998426
 21
-58.7179785690068385
 31
0.0
  0
LINE
  5
F814
  8
DETAIL
  6
CONTINUOUS
 62
     5
 10
-345.489150830998426
 20
-58.7179785690068385
 30
0.0
 11
-345.4810772439986977
 21
-58.7315933110066908
 31
0.0
  0
LINE
  5
F815
  8
DETAIL
  6
CONTINUOUS
 62
     5
 10
-345.4810772439986977
 20
-58.7315933110066908
 30
0.0
 11
-345.4734292209986961
 21
-58.7454494290068325
 31
0.0
  0
LINE
  5
F816
  8
DETAIL
  6
CONTINUOUS
 62
     5
 10
-345.4734292209986961
 20
-58.7454494290068325
 30
0.0
 11
-345.4662113169987947
 21
-58.7595295250066485
 31
0.0
  0
LINE
  5
F817
  8
DETAIL
  6
CONTINUOUS
 62
     5
 10
-345.4662113169987947
 20
-58.7595295250066485
 30
0.0
 11
-345.4594280909986992
 21
-58.773816198006898
 31
0.0
  0
LINE
  5
F818
  8
DETAIL
  6
CONTINUOUS
 62
     5
 10
-345.4594280909986992
 20
-58.773816198006898
 30
0.0
 11
-345.4530840959986904
 21
-58.7882920500069304
 31
0.0
  0
LINE
  5
F819
  8
DETAIL
  6
CONTINUOUS
 62
     5
 10
-345.4530840959986904
 20
-58.7882920500069304
 30
0.0
 11
-345.4471838889995183
 21
-58.8029396800066024
 31
0.0
  0
LINE
  5
F81A
  8
DETAIL
  6
CONTINUOUS
 62
     5
 10
-345.4471838889995183
 20
-58.8029396800066024
 30
0.0
 11
-345.4417320259989879
 21
-58.8177416900070966
 31
0.0
  0
LINE
  5
F81B
  8
DETAIL
  6
CONTINUOUS
 62
     5
 10
-345.4417320259989879
 20
-58.8177416900070966
 30
0.0
 11
-345.4367330639988722
 21
-58.8326806800068809
 31
0.0
  0
LINE
  5
F81C
  8
DETAIL
  6
CONTINUOUS
 62
     5
 10
-345.4367330639988722
 20
-58.8326806800068809
 30
0.0
 11
-345.4321915569989869
 21
-58.8477392500062706
 31
0.0
  0
LINE
  5
F81D
  8
DETAIL
  6
CONTINUOUS
 62
     5
 10
-345.4321915569989869
 20
-58.8477392500062706
 30
0.0
 11
-345.4281120619988883
 21
-58.8629000010068921
 31
0.0
  0
LINE
  5
F81E
  8
DETAIL
  6
CONTINUOUS
 62
     5
 10
-345.4281120619988883
 20
-58.8629000010068921
 30
0.0
 11
-345.4244991349988254
 21
-58.8781455340067623
 31
0.0
  0
LINE
  5
F81F
  8
DETAIL
  6
CONTINUOUS
 62
     5
 10
-345.4244991349988254
 20
-58.8781455340067623
 30
0.0
 11
-345.4213573309988874
 21
-58.8934584490070918
 31
0.0
  0
LINE
  5
F820
  8
DETAIL
  6
CONTINUOUS
 62
     5
 10
-345.4213573309988874
 20
-58.8934584490070918
 30
0.0
 11
-345.4186912079994727
 21
-58.9088213470067785
 31
0.0
  0
LINE
  5
F821
  8
DETAIL
  6
CONTINUOUS
 62
     5
 10
-345.4186912079994727
 20
-58.9088213470067785
 30
0.0
 11
-345.4165053199985778
 21
-58.9242168280070473
 31
0.0
  0
LINE
  5
F822
  8
DETAIL
  6
CONTINUOUS
 62
     5
 10
-345.4165053199985778
 20
-58.9242168280070473
 30
0.0
 11
-345.4148042229990097
 21
-58.939627494006352
 31
0.0
  0
LINE
  5
F823
  8
DETAIL
  6
CONTINUOUS
 62
     5
 10
-345.4148042229990097
 20
-58.939627494006352
 30
0.0
 11
-345.4135924749988931
 21
-58.9550359430068127
 31
0.0
  0
LINE
  5
F824
  8
DETAIL
  6
CONTINUOUS
 62
     5
 10
-345.4135924749988931
 20
-58.9550359430068127
 30
0.0
 11
-345.4128746289989067
 21
-58.9704247770068832
 31
0.0
  0
LINE
  5
F825
  8
DETAIL
  6
CONTINUOUS
 62
     5
 10
-345.4128746289989067
 20
-58.9704247770068832
 30
0.0
 11
-345.4126552429988806
 21
-58.9857765970064065
 31
0.0
  0
LINE
  5
F826
  8
DETAIL
  6
CONTINUOUS
 62
     5
 10
275.5603832850010804
 20
-59.4999999999936335
 30
0.0
 11
275.5083297300006961
 21
-59.5041946469937102
 31
0.0
  0
LINE
  5
F827
  8
DETAIL
  6
CONTINUOUS
 62
     5
 10
275.5083297300006961
 20
-59.5041946469937102
 30
0.0
 11
275.4572386010004266
 21
-59.5166528909940098
 31
0.0
  0
LINE
  5
F828
  8
DETAIL
  6
CONTINUOUS
 62
     5
 10
275.4572386010004266
 20
-59.5166528909940098
 30
0.0
 11
275.408640892001074
 21
-59.5370014099944385
 31
0.0
  0
LINE
  5
F829
  8
DETAIL
  6
CONTINUOUS
 62
     5
 10
275.408640892001074
 20
-59.5370014099944385
 30
0.0
 11
275.3639928780003174
 21
-59.5646304399942892
 31
0.0
  0
LINE
  5
F82A
  8
DETAIL
  6
CONTINUOUS
 62
     5
 10
275.3639928780003174
 20
-59.5646304399942892
 30
0.0
 11
275.324632480001128
 21
-59.5987120519939708
 31
0.0
  0
LINE
  5
F82B
  8
DETAIL
  6
CONTINUOUS
 62
     5
 10
275.324632480001128
 20
-59.5987120519939708
 30
0.0
 11
275.2917391690007207
 21
-59.6382249579937707
 31
0.0
  0
LINE
  5
F82C
  8
DETAIL
  6
CONTINUOUS
 62
     5
 10
275.2917391690007207
 20
-59.6382249579937707
 30
0.0
 11
275.266298624001081
 21
-59.6819851179943726
 31
0.0
  0
LINE
  5
F82D
  8
DETAIL
  6
CONTINUOUS
 62
     5
 10
460.0723380779999729
 20
-15.2791397819901196
 30
0.0
 11
460.0709016909995057
 21
-15.2885714849908201
 31
0.0
  0
LINE
  5
F82E
  8
DETAIL
  6
CONTINUOUS
 62
     5
 10
460.0709016909995057
 20
-15.2885714849908201
 30
0.0
 11
460.0696971329998064
 21
-15.2980344619900297
 31
0.0
  0
LINE
  5
F82F
  8
DETAIL
  6
CONTINUOUS
 62
     5
 10
460.0696971329998064
 20
-15.2980344619900297
 30
0.0
 11
460.0686885220001727
 21
-15.3075233849904109
 31
0.0
  0
LINE
  5
F830
  8
DETAIL
  6
CONTINUOUS
 62
     5
 10
460.0686885220001727
 20
-15.3075233849904109
 30
0.0
 11
460.0678399790003823
 21
-15.3170329259901301
 31
0.0
  0
LINE
  5
F831
  8
DETAIL
  6
CONTINUOUS
 62
     5
 10
460.0678399790003823
 20
-15.3170329259901301
 30
0.0
 11
460.067115623999598
 21
-15.3265577579904804
 31
0.0
  0
LINE
  5
F832
  8
DETAIL
  6
CONTINUOUS
 62
     5
 10
460.067115623999598
 20
-15.3265577579904804
 30
0.0
 11
460.0664795769998818
 21
-15.3360925509896298
 31
0.0
  0
LINE
  5
F833
  8
DETAIL
  6
CONTINUOUS
 62
     5
 10
460.0664795769998818
 20
-15.3360925509896298
 30
0.0
 11
460.0658959580003966
 21
-15.3456319799897702
 31
0.0
  0
LINE
  5
F834
  8
DETAIL
  6
CONTINUOUS
 62
     5
 10
460.0658959580003966
 20
-15.3456319799897702
 30
0.0
 11
460.0636791019995826
 21
-15.3850634179907502
 31
0.0
  0
LINE
  5
F835
  8
DETAIL
  6
CONTINUOUS
 62
     5
 10
460.0636791019995826
 20
-15.3850634179907502
 30
0.0
 11
460.0617175689994269
 21
-15.42448603999037
 31
0.0
  0
LINE
  5
F836
  8
DETAIL
  6
CONTINUOUS
 62
     5
 10
460.0617175689994269
 20
-15.42448603999037
 30
0.0
 11
460.0599838990000876
 21
-15.4639028709898394
 31
0.0
  0
LINE
  5
F837
  8
DETAIL
  6
CONTINUOUS
 62
     5
 10
460.0599838990000876
 20
-15.4639028709898394
 30
0.0
 11
460.0584506280001165
 21
-15.5033169389898795
 31
0.0
  0
LINE
  5
F838
  8
DETAIL
  6
CONTINUOUS
 62
     5
 10
460.0537723030001871
 20
-15.6610060889906908
 30
0.0
 11
460.036638984000092
 21
-16.6794521459905809
 31
0.0
  0
LINE
  5
F839
  8
DETAIL
  6
CONTINUOUS
 62
     5
 10
460.036638984000092
 20
-16.6794521459905809
 30
0.0
 11
460.0310347439998964
 21
-17.6980838869903891
 31
0.0
  0
LINE
  5
F83A
  8
DETAIL
  6
CONTINUOUS
 62
     5
 10
460.0310347439998964
 20
-17.6980838869903891
 30
0.0
 11
460.0305038810000724
 21
-18.7167802799904202
 31
0.0
  0
LINE
  5
F83B
  8
DETAIL
  6
CONTINUOUS
 62
     5
 10
460.0305038810000724
 20
-18.7167802799904202
 30
0.0
 11
460.0280586700009735
 21
-20.7668436869898905
 31
0.0
  0
LINE
  5
F83C
  8
DETAIL
  6
CONTINUOUS
 62
     5
 10
460.0280586700009735
 20
-20.7668436869898905
 30
0.0
 11
460.0239038810004786
 21
-22.8168136759904883
 31
0.0
  0
LINE
  5
F83D
  8
DETAIL
  6
CONTINUOUS
 62
     5
 10
460.0239038810004786
 20
-22.8168136759904883
 30
0.0
 11
460.0199496020003949
 21
-27.8463419519903184
 31
0.0
  0
LINE
  5
F83E
  8
DETAIL
  6
CONTINUOUS
 62
     5
 10
460.0199496020003949
 20
-27.8463419519903184
 30
0.0
 11
460.0206883440005186
 21
-32.8759328999894933
 31
0.0
  0
LINE
  5
F83F
  8
DETAIL
  6
CONTINUOUS
 62
     5
 10
460.0206883440005186
 20
-32.8759328999894933
 30
0.0
 11
460.0196410450006965
 21
-36.2108621219904308
 31
0.0
  0
LINE
  5
F840
  8
DETAIL
  6
CONTINUOUS
 62
     5
 10
460.0196410450006965
 20
-36.2108621219904308
 30
0.0
 11
460.0144950650009719
 21
-39.5456819659902976
 31
0.0
  0
LINE
  5
F841
  8
DETAIL
  6
CONTINUOUS
 62
     5
 10
459.9821953983437197
 20
-211.0563077208807954
 30
0.0
 11
459.9800098970043791
 21
-210.9141063549905084
 31
0.0
  0
LINE
  5
F842
  8
DETAIL
  6
CONTINUOUS
 62
     5
 10
459.9800098970043791
 20
-210.9141063549905084
 30
0.0
 11
459.9794558650045815
 21
-210.9018140299903905
 31
0.0
  0
LINE
  5
F843
  8
DETAIL
  6
CONTINUOUS
 62
     5
 10
459.9794558650045815
 20
-210.9018140299903905
 30
0.0
 11
459.978541571003916
 21
-210.8894848289901063
 31
0.0
  0
LINE
  5
F844
  8
DETAIL
  6
CONTINUOUS
 62
     5
 10
459.978541571003916
 20
-210.8894848289901063
 30
0.0
 11
459.9772725930042157
 21
-210.8771290109908136
 31
0.0
  0
LINE
  5
F845
  8
DETAIL
  6
CONTINUOUS
 62
     5
 10
459.9772725930042157
 20
-210.8771290109908136
 30
0.0
 11
459.9756545050040017
 21
-210.864756839990207
 31
0.0
  0
LINE
  5
F846
  8
DETAIL
  6
CONTINUOUS
 62
     5
 10
459.9756545050040017
 20
-210.864756839990207
 30
0.0
 11
459.9736928850043114
 21
-210.8523785759898885
 31
0.0
  0
LINE
  5
F847
  8
DETAIL
  6
CONTINUOUS
 62
     5
 10
459.9736928850043114
 20
-210.8523785759898885
 30
0.0
 11
459.9713933080046786
 21
-210.8400044799901139
 31
0.0
  0
LINE
  5
F848
  8
DETAIL
  6
CONTINUOUS
 62
     5
 10
459.9713933080046786
 20
-210.8400044799901139
 30
0.0
 11
459.9687613500045131
 21
-210.8276448139903891
 31
0.0
  0
LINE
  5
F849
  8
DETAIL
  6
CONTINUOUS
 62
     5
 10
459.9687613500045131
 20
-210.8276448139903891
 30
0.0
 11
459.9658025870040206
 21
-210.8153098399907037
 31
0.0
  0
LINE
  5
F84A
  8
DETAIL
  6
CONTINUOUS
 62
     5
 10
459.9658025870040206
 20
-210.8153098399907037
 30
0.0
 11
459.9625225940043833
 21
-210.8030098179897038
 31
0.0
  0
LINE
  5
F84B
  8
DETAIL
  6
CONTINUOUS
 62
     5
 10
459.9625225940043833
 20
-210.8030098179897038
 30
0.0
 11
459.9589269480039206
 21
-210.7907550109902957
 31
0.0
  0
LINE
  5
F84C
  8
DETAIL
  6
CONTINUOUS
 62
     5
 10
459.9589269480039206
 20
-210.7907550109902957
 30
0.0
 11
459.9550212250042023
 21
-210.7785556779909086
 31
0.0
  0
LINE
  5
F84D
  8
DETAIL
  6
CONTINUOUS
 62
     5
 10
459.9550212250042023
 20
-210.7785556779909086
 30
0.0
 11
459.9508110010036717
 21
-210.7664220829902035
 31
0.0
  0
LINE
  5
F84E
  8
DETAIL
  6
CONTINUOUS
 62
     5
 10
459.9508110010036717
 20
-210.7664220829902035
 30
0.0
 11
459.9463018500046019
 21
-210.7543644859906067
 31
0.0
  0
LINE
  5
F84F
  8
DETAIL
  6
CONTINUOUS
 62
     5
 10
459.9463018500046019
 20
-210.7543644859906067
 30
0.0
 11
459.9414993510035856
 21
-210.7423931479906969
 31
0.0
  0
LINE
  5
F850
  8
DETAIL
  6
CONTINUOUS
 62
     5
 10
459.9414993510035856
 20
-210.7423931479906969
 30
0.0
 11
459.9364090780035781
 21
-210.7305183309900087
 31
0.0
  0
LINE
  5
F851
  8
DETAIL
  6
CONTINUOUS
 62
     5
 10
459.9364090780035781
 20
-210.7305183309900087
 30
0.0
 11
459.931036607003989
 21
-210.7187502969900095
 31
0.0
  0
LINE
  5
F852
  8
DETAIL
  6
CONTINUOUS
 62
     5
 10
459.931036607003989
 20
-210.7187502969900095
 30
0.0
 11
459.9253875140037735
 21
-210.7070993059896864
 31
0.0
  0
LINE
  5
F853
  8
DETAIL
  6
CONTINUOUS
 62
     5
 10
459.9253875140037735
 20
-210.7070993059896864
 30
0.0
 11
459.9194673750042739
 21
-210.6955756199905068
 31
0.0
  0
LINE
  5
F854
  8
DETAIL
  6
CONTINUOUS
 62
     5
 10
459.9194673750042739
 20
-210.6955756199905068
 30
0.0
 11
459.9132817670042073
 21
-210.6841895009901862
 31
0.0
  0
LINE
  5
F855
  8
DETAIL
  6
CONTINUOUS
 62
     5
 10
459.9132817670042073
 20
-210.6841895009901862
 30
0.0
 11
459.9068362640036867
 21
-210.6729512099900887
 31
0.0
  0
LINE
  5
F856
  8
DETAIL
  6
CONTINUOUS
 62
     5
 10
459.9068362640036867
 20
-210.6729512099900887
 30
0.0
 11
459.9001364440035786
 21
-210.6618710069905944
 31
0.0
  0
LINE
  5
F857
  8
DETAIL
  6
CONTINUOUS
 62
     5
 10
459.9001364440035786
 20
-210.6618710069905944
 30
0.0
 11
459.8931878810043941
 21
-210.6509591559897956
 31
0.0
  0
LINE
  5
F858
  8
DETAIL
  6
CONTINUOUS
 62
     5
 10
459.8931878810043941
 20
-210.6509591559897956
 30
0.0
 11
459.8859961520038269
 21
-210.6402259159904133
 31
0.0
  0
LINE
  5
F859
  8
DETAIL
  6
CONTINUOUS
 62
     5
 10
459.8859961520038269
 20
-210.6402259159904133
 30
0.0
 11
459.8785668330036742
 21
-210.6296815499900106
 31
0.0
  0
LINE
  5
F85A
  8
DETAIL
  6
CONTINUOUS
 62
     5
 10
459.8785668330036742
 20
-210.6296815499900106
 30
0.0
 11
459.8709054990039817
 21
-210.6193363179899904
 31
0.0
  0
LINE
  5
F85B
  8
DETAIL
  6
CONTINUOUS
 62
     5
 10
459.8709054990039817
 20
-210.6193363179899904
 30
0.0
 11
459.8630177270043191
 21
-210.6092004829897917
 31
0.0
  0
LINE
  5
F85C
  8
DETAIL
  6
CONTINUOUS
 62
     5
 10
459.8630177270043191
 20
-210.6092004829897917
 30
0.0
 11
459.854909093004494
 21
-210.5992843049897942
 31
0.0
  0
LINE
  5
F85D
  8
DETAIL
  6
CONTINUOUS
 62
     5
 10
459.854909093004494
 20
-210.5992843049897942
 30
0.0
 11
459.8465851720038131
 21
-210.5895980459899874
 31
0.0
  0
LINE
  5
F85E
  8
DETAIL
  6
CONTINUOUS
 62
     5
 10
459.8465851720038131
 20
-210.5895980459899874
 30
0.0
 11
459.8380515400040167
 21
-210.5801519669903996
 31
0.0
  0
LINE
  5
F85F
  8
DETAIL
  6
CONTINUOUS
 62
     5
 10
459.8380515400040167
 20
-210.5801519669903996
 30
0.0
 11
459.8293137740038219
 21
-210.5709563289902064
 31
0.0
  0
LINE
  5
F860
  8
DETAIL
  6
CONTINUOUS
 62
     5
 10
459.8293137740038219
 20
-210.5709563289902064
 30
0.0
 11
459.8203774490046953
 21
-210.5620213949904951
 31
0.0
  0
LINE
  5
F861
  8
DETAIL
  6
CONTINUOUS
 62
     5
 10
459.8203774490046953
 20
-210.5620213949904951
 30
0.0
 11
459.8112481410042847
 21
-210.5533574249903097
 31
0.0
  0
LINE
  5
F862
  8
DETAIL
  6
CONTINUOUS
 62
     5
 10
459.8112481410042847
 20
-210.5533574249903097
 30
0.0
 11
459.8019314260035912
 21
-210.5449746809900091
 31
0.0
  0
LINE
  5
F863
  8
DETAIL
  6
CONTINUOUS
 62
     5
 10
459.8019314260035912
 20
-210.5449746809900091
 30
0.0
 11
459.7924328800035028
 21
-210.5368834239907017
 31
0.0
  0
LINE
  5
F864
  8
DETAIL
  6
CONTINUOUS
 62
     5
 10
459.7924328800035028
 20
-210.5368834239907017
 30
0.0
 11
459.782758079004509
 21
-210.5290939149899998
 31
0.0
  0
LINE
  5
F865
  8
DETAIL
  6
CONTINUOUS
 62
     5
 10
459.782758079004509
 20
-210.5290939149899998
 30
0.0
 11
459.7729125990044849
 21
-210.5216164159901098
 31
0.0
  0
LINE
  5
F866
  8
DETAIL
  6
CONTINUOUS
 62
     5
 10
459.7729125990044849
 20
-210.5216164159901098
 30
0.0
 11
459.7629020160038067
 21
-210.5144611889899977
 31
0.0
  0
LINE
  5
F867
  8
DETAIL
  6
CONTINUOUS
 62
     5
 10
459.7629020160038067
 20
-210.5144611889899977
 30
0.0
 11
459.7527319050039978
 21
-210.5076384939902994
 31
0.0
  0
LINE
  5
F868
  8
DETAIL
  6
CONTINUOUS
 62
     5
 10
284.9607076540013963
 20
-76.4394221109942009
 30
0.0
 11
284.9753703280011905
 21
-76.5321241389938223
 31
0.0
  0
LINE
  5
F869
  8
DETAIL
  6
CONTINUOUS
 62
     5
 10
284.9753703280011905
 20
-76.5321241389938223
 30
0.0
 11
285.0179255480015854
 21
-76.6157273259941576
 31
0.0
  0
LINE
  5
F86A
  8
DETAIL
  6
CONTINUOUS
 62
     5
 10
285.0179255480015854
 20
-76.6157273259941576
 30
0.0
 11
285.0842149180015781
 21
-76.682062166994001
 31
0.0
  0
LINE
  5
F86B
  8
DETAIL
  6
CONTINUOUS
 62
     5
 10
285.0842149180015781
 20
-76.682062166994001
 30
0.0
 11
285.167760798000927
 21
-76.7246465769940187
 31
0.0
  0
LINE
  5
F86C
  8
DETAIL
  6
CONTINUOUS
 62
     5
 10
285.167760798000927
 20
-76.7246465769940187
 30
0.0
 11
285.2603992810018099
 21
-76.7393193089937995
 31
0.0
  0
LINE
  5
F86D
  8
DETAIL
  6
CONTINUOUS
 62
     5
 10
275.2473931270014873
 20
-76.479494140994575
 30
0.0
 11
275.2718688490012937
 21
-76.5616486359940609
 31
0.0
  0
LINE
  5
F86E
  8
DETAIL
  6
CONTINUOUS
 62
     5
 10
275.2718688490012937
 20
-76.5616486359940609
 30
0.0
 11
275.3195590320009956
 21
-76.6341625409941116
 31
0.0
  0
LINE
  5
F86F
  8
DETAIL
  6
CONTINUOUS
 62
     5
 10
275.3195590320009956
 20
-76.6341625409941116
 30
0.0
 11
275.3864075600013166
 21
-76.6908684499940136
 31
0.0
  0
LINE
  5
F870
  8
DETAIL
  6
CONTINUOUS
 62
     5
 10
275.3864075600013166
 20
-76.6908684499940136
 30
0.0
 11
275.4667288770015148
 21
-76.7269434479940173
 31
0.0
  0
LINE
  5
F871
  8
DETAIL
  6
CONTINUOUS
 62
     5
 10
275.4667288770015148
 20
-76.7269434479940173
 30
0.0
 11
275.5536915450011861
 21
-76.7393193089937995
 31
0.0
  0
LINE
  5
F872
  8
DETAIL
  6
CONTINUOUS
 62
     5
 10
-28.9661866129990813
 20
-59.681985118000739
 30
0.0
 11
-28.9916271579986606
 21
-59.63822495800013
 31
0.0
  0
LINE
  5
F873
  8
DETAIL
  6
CONTINUOUS
 62
     5
 10
-28.9916271579986606
 20
-59.63822495800013
 30
0.0
 11
-29.0245204689990715
 21
-59.5987120520003373
 31
0.0
  0
LINE
  5
F874
  8
DETAIL
  6
CONTINUOUS
 62
     5
 10
-29.0245204689990715
 20
-59.5987120520003373
 30
0.0
 11
-29.0638808669982609
 21
-59.5646304399997391
 31
0.0
  0
LINE
  5
F875
  8
DETAIL
  6
CONTINUOUS
 62
     5
 10
-29.0638808669982609
 20
-59.5646304399997391
 30
0.0
 11
-29.1085288809990814
 21
-59.537001410000812
 31
0.0
  0
LINE
  5
F876
  8
DETAIL
  6
CONTINUOUS
 62
     5
 10
-29.1085288809990814
 20
-59.537001410000812
 30
0.0
 11
-29.1571265899992795
 21
-59.5166528910003834
 31
0.0
  0
LINE
  5
F877
  8
DETAIL
  6
CONTINUOUS
 62
     5
 10
-29.1571265899992795
 20
-59.5166528910003834
 30
0.0
 11
-29.2082177189986396
 21
-59.5041946470000767
 31
0.0
  0
LINE
  5
F878
  8
DETAIL
  6
CONTINUOUS
 62
     5
 10
-29.2082177189986396
 20
-59.5041946470000767
 30
0.0
 11
-29.2602712739990309
 21
-59.5
 31
0.0
  0
LINE
  5
F879
  8
DETAIL
  6
CONTINUOUS
 62
     5
 10
-441.2794015290000971
 20
-6.8939764180086049
 30
0.0
 11
-441.2813793140002758
 21
-6.8916267430086
 31
0.0
  0
LINE
  5
F87A
  8
DETAIL
  6
CONTINUOUS
 62
     5
 10
-441.2813793140002758
 20
-6.8916267430086
 30
0.0
 11
-441.2833728799996038
 21
-6.8892984720087043
 31
0.0
  0
LINE
  5
F87B
  8
DETAIL
  6
CONTINUOUS
 62
     5
 10
-441.2833728799996038
 20
-6.8892984720087043
 30
0.0
 11
-441.285387283000091
 21
-6.8869938310090211
 31
0.0
  0
LINE
  5
F87C
  8
DETAIL
  6
CONTINUOUS
 62
     5
 10
-441.285387283000091
 20
-6.8869938310090211
 30
0.0
 11
-441.2874275780004041
 21
-6.8847150440087708
 31
0.0
  0
LINE
  5
F87D
  8
DETAIL
  6
CONTINUOUS
 62
     5
 10
-441.2874275780004041
 20
-6.8847150440087708
 30
0.0
 11
-441.2894988199996078
 21
-6.88246433500899
 31
0.0
  0
LINE
  5
F87E
  8
DETAIL
  6
CONTINUOUS
 62
     5
 10
-441.2894988199996078
 20
-6.88246433500899
 30
0.0
 11
-441.2916060670003731
 21
-6.8802439290084294
 31
0.0
  0
LINE
  5
F87F
  8
DETAIL
  6
CONTINUOUS
 62
     5
 10
-441.2916060670003731
 20
-6.8802439290084294
 30
0.0
 11
-441.2937543720000235
 21
-6.8780560500090351
 31
0.0
  0
LINE
  5
F880
  8
DETAIL
  6
CONTINUOUS
 62
     5
 10
-441.2937543720000235
 20
-6.8780560500090351
 30
0.0
 11
-441.2959487919997059
 21
-6.8759029240090959
 31
0.0
  0
LINE
  5
F881
  8
DETAIL
  6
CONTINUOUS
 62
     5
 10
-441.2959487919997059
 20
-6.8759029240090959
 30
0.0
 11
-441.2981943830000091
 21
-6.8737867730087601
 31
0.0
  0
LINE
  5
F882
  8
DETAIL
  6
CONTINUOUS
 62
     5
 10
-441.2981943830000091
 20
-6.8737867730087601
 30
0.0
 11
-441.3004962000003957
 21
-6.8717098230090414
 31
0.0
  0
LINE
  5
F883
  8
DETAIL
  6
CONTINUOUS
 62
     5
 10
-441.3004962000003957
 20
-6.8717098230090414
 30
0.0
 11
-441.3028592990003176
 21
-6.8696742980091576
 31
0.0
  0
LINE
  5
F884
  8
DETAIL
  6
CONTINUOUS
 62
     5
 10
-441.3028592990003176
 20
-6.8696742980091576
 30
0.0
 11
-441.3052887360000227
 21
-6.8676824230087732
 31
0.0
  0
LINE
  5
F885
  8
DETAIL
  6
CONTINUOUS
 62
     5
 10
-441.3052887360000227
 20
-6.8676824230087732
 30
0.0
 11
-441.3071111790004011
 21
-6.8662536840092789
 31
0.0
  0
LINE
  5
F886
  8
DETAIL
  6
CONTINUOUS
 62
     5
 10
-441.3071111790004011
 20
-6.8662536840092789
 30
0.0
 11
-441.3089703269998267
 21
-6.8648512150093657
 31
0.0
  0
LINE
  5
F887
  8
DETAIL
  6
CONTINUOUS
 62
     5
 10
-441.3089703269998267
 20
-6.8648512150093657
 30
0.0
 11
-441.3108646410000802
 21
-6.8634767140083559
 31
0.0
  0
LINE
  5
F888
  8
DETAIL
  6
CONTINUOUS
 62
     5
 10
-441.3108646410000802
 20
-6.8634767140083559
 30
0.0
 11
-441.312792585000409
 21
-6.8621318790083023
 31
0.0
  0
LINE
  5
F889
  8
DETAIL
  6
CONTINUOUS
 62
     5
 10
-441.312792585000409
 20
-6.8621318790083023
 30
0.0
 11
-441.314752621000423
 21
-6.8608184060085469
 31
0.0
  0
LINE
  5
F88A
  8
DETAIL
  6
CONTINUOUS
 62
     5
 10
-441.314752621000423
 20
-6.8608184060085469
 30
0.0
 11
-441.3167432110003006
 21
-6.8595379930084164
 31
0.0
  0
LINE
  5
F88B
  8
DETAIL
  6
CONTINUOUS
 62
     5
 10
-441.3167432110003006
 20
-6.8595379930084164
 30
0.0
 11
-441.3187628169998789
 21
-6.8582923370086064
 31
0.0
  0
LINE
  5
F88C
  8
DETAIL
  6
CONTINUOUS
 62
     5
 10
-441.3187628169998789
 20
-6.8582923370086064
 30
0.0
 11
-441.3208099020001782
 21
-6.8570831370088854
 31
0.0
  0
LINE
  5
F88D
  8
DETAIL
  6
CONTINUOUS
 62
     5
 10
-441.3208099020001782
 20
-6.8570831370088854
 30
0.0
 11
-441.3228829280005243
 21
-6.855912090009042
 31
0.0
  0
LINE
  5
F88E
  8
DETAIL
  6
CONTINUOUS
 62
     5
 10
-441.3228829280005243
 20
-6.855912090009042
 30
0.0
 11
-441.3249803580001753
 21
-6.8547808930088641
 31
0.0
  0
LINE
  5
F88F
  8
DETAIL
  6
CONTINUOUS
 62
     5
 10
-441.3249803580001753
 20
-6.8547808930088641
 30
0.0
 11
-441.3271006530002865
 21
-6.8536912430090524
 31
0.0
  0
LINE
  5
F890
  8
DETAIL
  6
CONTINUOUS
 62
     5
 10
-441.3271006530002865
 20
-6.8536912430090524
 30
0.0
 11
-441.3292422769999916
 21
-6.852644839009371
 31
0.0
  0
LINE
  5
F891
  8
DETAIL
  6
CONTINUOUS
 62
     5
 10
-441.3292422769999916
 20
-6.852644839009371
 30
0.0
 11
-441.3314036920000945
 21
-6.851643377009168
 31
0.0
  0
LINE
  5
F892
  8
DETAIL
  6
CONTINUOUS
 62
     5
 10
-441.3314036920000945
 20
-6.851643377009168
 30
0.0
 11
-441.3335833600003753
 21
-6.8506885550086727
 31
0.0
  0
LINE
  5
F893
  8
DETAIL
  6
CONTINUOUS
 62
     5
 10
-441.3335833600003753
 20
-6.8506885550086727
 30
0.0
 11
-441.3357797429998186
 21
-6.84978207100903
 31
0.0
  0
LINE
  5
F894
  8
DETAIL
  6
CONTINUOUS
 62
     5
 10
-441.3357797429998186
 20
-6.84978207100903
 30
0.0
 11
-441.3379913039997859
 21
-6.8489256220091193
 31
0.0
  0
LINE
  5
F895
  8
DETAIL
  6
CONTINUOUS
 62
     5
 10
-441.3379913039997859
 20
-6.8489256220091193
 30
0.0
 11
-441.3402165050001145
 21
-6.8481209060091706
 31
0.0
  0
LINE
  5
F896
  8
DETAIL
  6
CONTINUOUS
 62
     5
 10
-441.3402165050001145
 20
-6.8481209060091706
 30
0.0
 11
-441.3424538079997888
 21
-6.847369619008532
 31
0.0
  0
LINE
  5
F897
  8
DETAIL
  6
CONTINUOUS
 62
     5
 10
-441.3424538079997888
 20
-6.847369619008532
 30
0.0
 11
-441.3447016760001134
 21
-6.8466734600087866
 31
0.0
  0
LINE
  5
F898
  8
DETAIL
  6
CONTINUOUS
 62
     5
 10
-441.3447016760001134
 20
-6.8466734600087866
 30
0.0
 11
-441.3469585720004034
 21
-6.8460341260088171
 31
0.0
  0
LINE
  5
F899
  8
DETAIL
  6
CONTINUOUS
 62
     5
 10
-441.3469585720004034
 20
-6.8460341260088171
 30
0.0
 11
-441.3492229570001086
 21
-6.8454533150088528
 31
0.0
  0
LINE
  5
F89A
  8
DETAIL
  6
CONTINUOUS
 62
     5
 10
-441.3492229570001086
 20
-6.8454533150088528
 30
0.0
 11
-441.3514932939996811
 21
-6.8449327230091512
 31
0.0
  0
LINE
  5
F89B
  8
DETAIL
  6
CONTINUOUS
 62
     5
 10
-441.3514932939996811
 20
-6.8449327230091512
 30
0.0
 11
-441.3537680460003116
 21
-6.8444740490085669
 31
0.0
  0
LINE
  5
F89C
  8
DETAIL
  6
CONTINUOUS
 62
     5
 10
-441.3537680460003116
 20
-6.8444740490085669
 30
0.0
 11
-441.3560456740005975
 21
-6.8440789900087111
 31
0.0
  0
LINE
  5
F89D
  8
DETAIL
  6
CONTINUOUS
 62
     5
 10
-441.3560456740005975
 20
-6.8440789900087111
 30
0.0
 11
-441.3583246420001842
 21
-6.8437492430093689
 31
0.0
  0
LINE
  5
F89E
  8
DETAIL
  6
CONTINUOUS
 62
     5
 10
-441.3583246420001842
 20
-6.8437492430093689
 30
0.0
 11
-441.3606034100002944
 21
-6.8434865070084916
 31
0.0
  0
LINE
  5
F89F
  8
DETAIL
  6
CONTINUOUS
 62
     5
 10
-441.3606034100002944
 20
-6.8434865070084916
 30
0.0
 11
-441.3628804429999946
 21
-6.8432924770086174
 31
0.0
  0
LINE
  5
F8A0
  8
DETAIL
  6
CONTINUOUS
 62
     5
 10
-441.3628804429999946
 20
-6.8432924770086174
 30
0.0
 11
-441.3651542019997009
 21
-6.843168853009046
 31
0.0
  0
LINE
  5
F8A1
  8
DETAIL
  6
CONTINUOUS
 62
     5
 10
-441.3651542019997009
 20
-6.843168853009046
 30
0.0
 11
-441.3674231490003876
 21
-6.8431173310091253
 31
0.0
  0
LINE
  5
F8A2
  8
DETAIL
  6
CONTINUOUS
 62
     5
 10
-441.3674231490003876
 20
-6.8431173310091253
 30
0.0
 11
-441.3696857479998812
 21
-6.8431396090090848
 31
0.0
  0
LINE
  5
F8A3
  8
DETAIL
  6
CONTINUOUS
 62
     5
 10
-441.3696857479998812
 20
-6.8431396090090848
 30
0.0
 11
-441.3719404590000863
 21
-6.8432373840087157
 31
0.0
  0
LINE
  5
F8A4
  8
DETAIL
  6
CONTINUOUS
 62
     5
 10
-441.3719404590000863
 20
-6.8432373840087157
 30
0.0
 11
-441.3741857470004106
 21
-6.8434123540091596
 31
0.0
  0
LINE
  5
F8A5
  8
DETAIL
  6
CONTINUOUS
 62
     5
 10
-441.3741857470004106
 20
-6.8434123540091596
 30
0.0
 11
-441.3764200719996893
 21
-6.8436662170088312
 31
0.0
  0
LINE
  5
F8A6
  8
DETAIL
  6
CONTINUOUS
 62
     5
 10
-441.3764200719996893
 20
-6.8436662170088312
 30
0.0
 11
-441.3786418979997848
 21
-6.8440006690088921
 31
0.0
  0
LINE
  5
F8A7
  8
DETAIL
  6
CONTINUOUS
 62
     5
 10
-441.3786418979997848
 20
-6.8440006690088921
 30
0.0
 11
-441.3808496869996816
 21
-6.8444174080086659
 31
0.0
  0
LINE
  5
F8A8
  8
DETAIL
  6
CONTINUOUS
 62
     5
 10
-441.3808496869996816
 20
-6.8444174080086659
 30
0.0
 11
-441.3830418999996255
 21
-6.8449181330088322
 31
0.0
  0
LINE
  5
F8A9
  8
DETAIL
  6
CONTINUOUS
 62
     5
 10
287.7337013760006812
 20
-59.6819851179934702
 30
0.0
 11
287.7082608310010983
 21
-59.6382249579937707
 31
0.0
  0
LINE
  5
F8AA
  8
DETAIL
  6
CONTINUOUS
 62
     5
 10
287.7082608310010983
 20
-59.6382249579937707
 30
0.0
 11
287.675367520000691
 21
-59.5987120519939708
 31
0.0
  0
LINE
  5
F8AB
  8
DETAIL
  6
CONTINUOUS
 62
     5
 10
287.675367520000691
 20
-59.5987120519939708
 30
0.0
 11
287.6360071230009794
 21
-59.5646304399942892
 31
0.0
  0
LINE
  5
F8AC
  8
DETAIL
  6
CONTINUOUS
 62
     5
 10
287.6360071230009794
 20
-59.5646304399942892
 30
0.0
 11
287.5913591090010755
 21
-59.537001409993529
 31
0.0
  0
LINE
  5
F8AD
  8
DETAIL
  6
CONTINUOUS
 62
     5
 10
287.5913591090010755
 20
-59.537001409993529
 30
0.0
 11
287.5427614000009271
 21
-59.5166528909940098
 31
0.0
  0
LINE
  5
F8AE
  8
DETAIL
  6
CONTINUOUS
 62
     5
 10
287.5427614000009271
 20
-59.5166528909940098
 30
0.0
 11
287.4916702710006007
 21
-59.5041946469937102
 31
0.0
  0
LINE
  5
F8AF
  8
DETAIL
  6
CONTINUOUS
 62
     5
 10
287.4916702710006007
 20
-59.5041946469937102
 30
0.0
 11
287.4396167150007955
 21
-59.4999999999936335
 31
0.0
  0
LINE
  5
F8B0
  8
OUTLINE
  6
CONTINUOUS
 62
     3
 10
-460.035763740011987
 20
-17.3431204870266811
 30
0.0
 11
-460.0320733670122877
 21
-18.2152857780256383
 31
0.0
  0
LINE
  5
F8B1
  8
OUTLINE
  6
CONTINUOUS
 62
     3
 10
-460.0320733670122877
 20
-18.2152857780256383
 30
0.0
 11
-460.027232908010717
 21
-20.1770456120266317
 31
0.0
  0
LINE
  5
F8B2
  8
OUTLINE
  6
CONTINUOUS
 62
     3
 10
-460.027232908010717
 20
-20.1770456120266317
 30
0.0
 11
-460.0243018260115946
 21
-22.3944384550259201
 31
0.0
  0
LINE
  5
F8B3
  8
OUTLINE
  6
CONTINUOUS
 62
     3
 10
-460.0243018260115946
 20
-22.3944384550259201
 30
0.0
 11
-460.0224453360115149
 21
-24.8229376570261593
 31
0.0
  0
LINE
  5
F8B4
  8
OUTLINE
  6
CONTINUOUS
 62
     3
 10
-460.0224453360115149
 20
-24.8229376570261593
 30
0.0
 11
-460.0213217350100763
 21
-27.4141745340257295
 31
0.0
  0
LINE
  5
F8B5
  8
OUTLINE
  6
CONTINUOUS
 62
     3
 10
-460.0213217350100763
 20
-27.4141745340257295
 30
0.0
 11
-460.0206883430109883
 21
-32.8759298010263592
 31
0.0
  0
LINE
  5
F8B6
  8
OUTLINE
  6
CONTINUOUS
 62
     3
 10
-460.0723380770103859
 20
-15.2791397820264994
 30
0.0
 11
-460.0627692790112064
 21
-15.3608458600265294
 31
0.0
  0
LINE
  5
F8B7
  8
OUTLINE
  6
CONTINUOUS
 62
     3
 10
-460.0627692790112064
 20
-15.3608458600265294
 30
0.0
 11
-460.0589579990119091
 21
-15.4432017260260199
 31
0.0
  0
LINE
  5
F8B8
  8
OUTLINE
  6
CONTINUOUS
 62
     3
 10
-460.0589579990119091
 20
-15.4432017260260199
 30
0.0
 11
-460.0576211710102825
 21
-15.5257867970267398
 31
0.0
  0
LINE
  5
F8B9
  8
OUTLINE
  6
CONTINUOUS
 62
     3
 10
-460.0576211710102825
 20
-15.5257867970267398
 30
0.0
 11
-460.0499368610106785
 21
-15.8425656470262695
 31
0.0
  0
LINE
  5
F8BA
  8
OUTLINE
  6
CONTINUOUS
 62
     3
 10
-460.0499368610106785
 20
-15.8425656470262695
 30
0.0
 11
-460.0439132180108004
 21
-16.196213000026539
 31
0.0
  0
LINE
  5
F8BB
  8
OUTLINE
  6
CONTINUOUS
 62
     3
 10
-460.0439132180108004
 20
-16.196213000026539
 30
0.0
 11
-460.035763740011987
 21
-17.3431204870266811
 31
0.0
  0
LINE
  5
F8BC
  8
OUTLINE
  6
CONTINUOUS
 62
     3
 10
414.8691581519888132
 20
-3.916781583026022
 30
0.0
 11
415.4050648869887823
 21
-3.897391624026568
 31
0.0
  0
LINE
  5
F8BD
  8
OUTLINE
  6
CONTINUOUS
 62
     3
 10
415.4050648869887823
 20
-3.897391624026568
 30
0.0
 11
415.9669453519891249
 21
-3.870135941026092
 31
0.0
  0
LINE
  5
F8BE
  8
OUTLINE
  6
CONTINUOUS
 62
     3
 10
415.9669453519891249
 20
-3.870135941026092
 30
0.0
 11
416.5284839999894757
 21
-3.8363553950257478
 31
0.0
  0
LINE
  5
F8BF
  8
OUTLINE
  6
CONTINUOUS
 62
     3
 10
416.5284839999894757
 20
-3.8363553950257478
 30
0.0
 11
417.0896807779881783
 21
-3.7966134230264279
 31
0.0
  0
LINE
  5
F8C0
  8
OUTLINE
  6
CONTINUOUS
 62
     3
 10
417.0896807779881783
 20
-3.7966134230264279
 30
0.0
 11
417.6505356329889196
 21
-3.7514734600263182
 31
0.0
  0
LINE
  5
F8C1
  8
OUTLINE
  6
CONTINUOUS
 62
     3
 10
417.6505356329889196
 20
-3.7514734600263182
 30
0.0
 11
418.2110485139892262
 21
-3.7014989420258639
 31
0.0
  0
LINE
  5
F8C2
  8
OUTLINE
  6
CONTINUOUS
 62
     3
 10
418.2110485139892262
 20
-3.7014989420258639
 30
0.0
 11
418.7712193669884755
 21
-3.6472533050264242
 31
0.0
  0
LINE
  5
F8C3
  8
OUTLINE
  6
CONTINUOUS
 62
     3
 10
418.7712193669884755
 20
-3.6472533050264242
 30
0.0
 11
419.3310481399893774
 21
-3.5892999860261621
 31
0.0
  0
LINE
  5
F8C4
  8
OUTLINE
  6
CONTINUOUS
 62
     3
 10
419.3310481399893774
 20
-3.5892999860261621
 30
0.0
 11
419.8905347809886166
 21
-3.5282024200259912
 31
0.0
  0
LINE
  5
F8C5
  8
OUTLINE
  6
CONTINUOUS
 62
     3
 10
419.8905347809886166
 20
-3.5282024200259912
 30
0.0
 11
420.4496792379886188
 21
-3.464524043026358
 31
0.0
  0
LINE
  5
F8C6
  8
OUTLINE
  6
CONTINUOUS
 62
     3
 10
420.4496792379886188
 20
-3.464524043026358
 30
0.0
 11
421.0084814569889886
 21
-3.3988282920263369
 31
0.0
  0
LINE
  5
F8C7
  8
OUTLINE
  6
CONTINUOUS
 62
     3
 10
421.0084814569889886
 20
-3.3988282920263369
 30
0.0
 11
422.2083958459879227
 21
-3.2554391950261561
 31
0.0
  0
LINE
  5
F8C8
  8
OUTLINE
  6
CONTINUOUS
 62
     3
 10
422.2083958459879227
 20
-3.2554391950261561
 30
0.0
 11
422.8087411899887229
 21
-3.1866147450264171
 31
0.0
  0
LINE
  5
F8C9
  8
OUTLINE
  6
CONTINUOUS
 62
     3
 10
422.8087411899887229
 20
-3.1866147450264171
 30
0.0
 11
423.4098682999883181
 21
-3.1225766180259589
 31
0.0
  0
LINE
  5
F8CA
  8
OUTLINE
  6
CONTINUOUS
 62
     3
 10
423.4098682999883181
 20
-3.1225766180259589
 30
0.0
 11
423.6965950859885197
 21
-3.0944638740256769
 31
0.0
  0
LINE
  5
F8CB
  8
OUTLINE
  6
CONTINUOUS
 62
     3
 10
423.6965950859885197
 20
-3.0944638740256769
 30
0.0
 11
423.9835638239891864
 21
-3.068660734025797
 31
0.0
  0
LINE
  5
F8CC
  8
OUTLINE
  6
CONTINUOUS
 62
     3
 10
423.9835638239891864
 20
-3.068660734025797
 30
0.0
 11
424.2707500669894216
 21
-3.045901796025646
 31
0.0
  0
LINE
  5
F8CD
  8
OUTLINE
  6
CONTINUOUS
 62
     3
 10
424.2707500669894216
 20
-3.045901796025646
 30
0.0
 11
424.558129367989693
 21
-3.0269216560263881
 31
0.0
  0
LINE
  5
F8CE
  8
OUTLINE
  6
CONTINUOUS
 62
     3
 10
424.558129367989693
 20
-3.0269216560263881
 30
0.0
 11
424.8456772799889904
 21
-3.012454912026441
 31
0.0
  0
LINE
  5
F8CF
  8
OUTLINE
  6
CONTINUOUS
 62
     3
 10
424.8456772799889904
 20
-3.012454912026441
 30
0.0
 11
425.1333693559898848
 21
-3.003236161026507
 31
0.0
  0
LINE
  5
F8D0
  8
OUTLINE
  6
CONTINUOUS
 62
     3
 10
425.1333693559898848
 20
-3.003236161026507
 30
0.0
 11
425.4211811489893762
 21
-3.0000000000263749
 31
0.0
  0
LINE
  5
F8D1
  8
OUTLINE
  6
CONTINUOUS
 62
     3
 10
-431.4367107520118907
 20
-3.3988282920263369
 30
0.0
 11
-432.6366251410108248
 21
-3.2554391950261561
 31
0.0
  0
LINE
  5
F8D2
  8
OUTLINE
  6
CONTINUOUS
 62
     3
 10
-432.6366251410108248
 20
-3.2554391950261561
 30
0.0
 11
-433.2369704850115113
 21
-3.1866147450264171
 31
0.0
  0
LINE
  5
F8D3
  8
OUTLINE
  6
CONTINUOUS
 62
     3
 10
-433.2369704850115113
 20
-3.1866147450264171
 30
0.0
 11
-433.8380975950112202
 21
-3.1225766180259589
 31
0.0
  0
LINE
  5
F8D4
  8
OUTLINE
  6
CONTINUOUS
 62
     3
 10
-433.8380975950112202
 20
-3.1225766180259589
 30
0.0
 11
-434.1248243810114218
 21
-3.0944638740256769
 31
0.0
  0
LINE
  5
F8D5
  8
OUTLINE
  6
CONTINUOUS
 62
     3
 10
-434.1248243810114218
 20
-3.0944638740256769
 30
0.0
 11
-434.4117931190120885
 21
-3.068660734025797
 31
0.0
  0
LINE
  5
F8D6
  8
OUTLINE
  6
CONTINUOUS
 62
     3
 10
-434.4117931190120885
 20
-3.068660734025797
 30
0.0
 11
-434.6989793620123237
 21
-3.045901796025646
 31
0.0
  0
LINE
  5
F8D7
  8
OUTLINE
  6
CONTINUOUS
 62
     3
 10
-434.6989793620123237
 20
-3.045901796025646
 30
0.0
 11
-434.9863586630107761
 21
-3.0269216560263881
 31
0.0
  0
LINE
  5
F8D8
  8
OUTLINE
  6
CONTINUOUS
 62
     3
 10
-434.9863586630107761
 20
-3.0269216560263881
 30
0.0
 11
-435.2739065750100735
 21
-3.012454912026441
 31
0.0
  0
LINE
  5
F8D9
  8
OUTLINE
  6
CONTINUOUS
 62
     3
 10
-435.2739065750100735
 20
-3.012454912026441
 30
0.0
 11
-435.5615986510110815
 21
-3.003236161026507
 31
0.0
  0
LINE
  5
F8DA
  8
OUTLINE
  6
CONTINUOUS
 62
     3
 10
-435.5615986510110815
 20
-3.003236161026507
 30
0.0
 11
-435.8494104440105161
 21
-3.0000000000263749
 31
0.0
  0
LINE
  5
F8DB
  8
OUTLINE
  6
CONTINUOUS
 62
     3
 10
-425.2973874470117153
 20
-3.916781583026022
 30
0.0
 11
-425.8332941810111834
 21
-3.897391624026568
 31
0.0
  0
LINE
  5
F8DC
  8
OUTLINE
  6
CONTINUOUS
 62
     3
 10
-425.8332941810111834
 20
-3.897391624026568
 30
0.0
 11
-426.3951746470119133
 21
-3.870135941026092
 31
0.0
  0
LINE
  5
F8DD
  8
OUTLINE
  6
CONTINUOUS
 62
     3
 10
-426.3951746470119133
 20
-3.870135941026092
 30
0.0
 11
-426.956713295010502
 21
-3.8363553950257478
 31
0.0
  0
LINE
  5
F8DE
  8
OUTLINE
  6
CONTINUOUS
 62
     3
 10
-426.956713295010502
 20
-3.8363553950257478
 30
0.0
 11
-427.5179100730110235
 21
-3.7966134230264279
 31
0.0
  0
LINE
  5
F8DF
  8
OUTLINE
  6
CONTINUOUS
 62
     3
 10
-427.5179100730110235
 20
-3.7966134230264279
 30
0.0
 11
-428.0787649280100027
 21
-3.7514734600263182
 31
0.0
  0
LINE
  5
F8E0
  8
OUTLINE
  6
CONTINUOUS
 62
     3
 10
-428.0787649280100027
 20
-3.7514734600263182
 30
0.0
 11
-428.6392778090121283
 21
-3.7014989420258639
 31
0.0
  0
LINE
  5
F8E1
  8
OUTLINE
  6
CONTINUOUS
 62
     3
 10
-428.6392778090121283
 20
-3.7014989420258639
 30
0.0
 11
-429.1994486620113776
 21
-3.6472533050264242
 31
0.0
  0
LINE
  5
F8E2
  8
OUTLINE
  6
CONTINUOUS
 62
     3
 10
-429.1994486620113776
 20
-3.6472533050264242
 30
0.0
 11
-429.7592774350105174
 21
-3.5892999860261621
 31
0.0
  0
LINE
  5
F8E3
  8
OUTLINE
  6
CONTINUOUS
 62
     3
 10
-429.7592774350105174
 20
-3.5892999860261621
 30
0.0
 11
-430.3187640760115187
 21
-3.5282024200259912
 31
0.0
  0
LINE
  5
F8E4
  8
OUTLINE
  6
CONTINUOUS
 62
     3
 10
-430.3187640760115187
 20
-3.5282024200259912
 30
0.0
 11
-430.8779085330115208
 21
-3.464524043026358
 31
0.0
  0
LINE
  5
F8E5
  8
OUTLINE
  6
CONTINUOUS
 62
     3
 10
-430.8779085330115208
 20
-3.464524043026358
 30
0.0
 11
-431.4367107520118907
 21
-3.3988282920263369
 31
0.0
  0
LINE
  5
F8E6
  8
OUTLINE
  6
CONTINUOUS
 62
     3
 10
460.0723380779891158
 20
-15.2791397820264994
 30
0.0
 11
460.0709016909895013
 21
-15.2885714850262904
 31
0.0
  0
LINE
  5
F8E7
  8
OUTLINE
  6
CONTINUOUS
 62
     3
 10
460.0709016909895013
 20
-15.2885714850262904
 30
0.0
 11
460.0696971329888925
 21
-15.2980344620264095
 31
0.0
  0
LINE
  5
F8E8
  8
OUTLINE
  6
CONTINUOUS
 62
     3
 10
460.0696971329888925
 20
-15.2980344620264095
 30
0.0
 11
460.0686885219893156
 21
-15.3075233850258901
 31
0.0
  0
LINE
  5
F8E9
  8
OUTLINE
  6
CONTINUOUS
 62
     3
 10
460.0686885219893156
 20
-15.3075233850258901
 30
0.0
 11
460.067839978988502
 21
-15.3170329260265099
 31
0.0
  0
LINE
  5
F8EA
  8
OUTLINE
  6
CONTINUOUS
 62
     3
 10
460.067839978988502
 20
-15.3170329260265099
 30
0.0
 11
460.0671156239877746
 21
-15.3265577580259507
 31
0.0
  0
LINE
  5
F8EB
  8
OUTLINE
  6
CONTINUOUS
 62
     3
 10
460.0671156239877746
 20
-15.3265577580259507
 30
0.0
 11
460.0664795769880016
 21
-15.3360925510260095
 31
0.0
  0
LINE
  5
F8EC
  8
OUTLINE
  6
CONTINUOUS
 62
     3
 10
460.0664795769880016
 20
-15.3360925510260095
 30
0.0
 11
460.0658959579885732
 21
-15.34563198002615
 31
0.0
  0
LINE
  5
F8ED
  8
OUTLINE
  6
CONTINUOUS
 62
     3
 10
460.0658959579885732
 20
-15.34563198002615
 30
0.0
 11
460.0636791019896918
 21
-15.3850634180262205
 31
0.0
  0
LINE
  5
F8EE
  8
OUTLINE
  6
CONTINUOUS
 62
     3
 10
460.0636791019896918
 20
-15.3850634180262205
 30
0.0
 11
460.0617175689876035
 21
-15.4244860400267498
 31
0.0
  0
LINE
  5
F8EF
  8
OUTLINE
  6
CONTINUOUS
 62
     3
 10
460.0617175689876035
 20
-15.4244860400267498
 30
0.0
 11
460.0599838989891737
 21
-15.4639028710262192
 31
0.0
  0
LINE
  5
F8F0
  8
OUTLINE
  6
CONTINUOUS
 62
     3
 10
460.0599838989891737
 20
-15.4639028710262192
 30
0.0
 11
460.058450627988293
 21
-15.5033169390262593
 31
0.0
  0
LINE
  5
F8F1
  8
OUTLINE
  6
CONTINUOUS
 62
     3
 10
460.0537723029884205
 20
-15.6610060890261593
 30
0.0
 11
460.0366389839891781
 21
-16.6794521460260512
 31
0.0
  0
LINE
  5
F8F2
  8
OUTLINE
  6
CONTINUOUS
 62
     3
 10
460.0366389839891781
 20
-16.6794521460260512
 30
0.0
 11
460.0310347439880729
 21
-17.6980838870258594
 31
0.0
  0
LINE
  5
F8F3
  8
OUTLINE
  6
CONTINUOUS
 62
     3
 10
460.0310347439880729
 20
-17.6980838870258594
 30
0.0
 11
460.0305038809892153
 21
-18.7167802800267893
 31
0.0
  0
LINE
  5
F8F4
  8
OUTLINE
  6
CONTINUOUS
 62
     3
 10
460.0305038809892153
 20
-18.7167802800267893
 30
0.0
 11
460.0280586699881837
 21
-20.7668436870262703
 31
0.0
  0
LINE
  5
F8F5
  8
OUTLINE
  6
CONTINUOUS
 62
     3
 10
460.0280586699881837
 20
-20.7668436870262703
 30
0.0
 11
460.023903880988712
 21
-22.8168136760259586
 31
0.0
  0
LINE
  5
F8F6
  8
OUTLINE
  6
CONTINUOUS
 62
     3
 10
460.023903880988712
 20
-22.8168136760259586
 30
0.0
 11
460.0199496019886283
 21
-27.8463419520257993
 31
0.0
  0
LINE
  5
F8F7
  8
OUTLINE
  6
CONTINUOUS
 62
     3
 10
460.0199496019886283
 20
-27.8463419520257993
 30
0.0
 11
460.0206883439896046
 21
-32.8759329000258731
 31
0.0
  0
LINE
  5
F8F8
  8
OUTLINE
  6
CONTINUOUS
 62
     3
 10
460.0206883439896046
 20
-32.8759329000258731
 30
0.0
 11
460.0196410449897826
 21
-36.210862122025901
 31
0.0
  0
LINE
  5
F8F9
  8
OUTLINE
  6
CONTINUOUS
 62
     3
 10
460.0196410449897826
 20
-36.210862122025901
 30
0.0
 11
460.0144950649882958
 21
-39.5456819660266774
 31
0.0
  0
ENDSEC
  0
EOF
